  0
SECTION
  2
HEADER
  9
$ACADVER
  1
AC1015
  9
$ACADMAINTVER
 70
     6
  9
$DWGCODEPAGE
  3
ANSI_1254
  9
$INSBASE
 10
0.0
 20
0.0
 30
0.0
  9
$EXTMIN
 10
0.0
 20
0.0
 30
0.0
  9
$EXTMAX
 10
279.4
 20
215.9
 30
0.0
  9
$LIMMIN
 10
0.0
 20
0.0
  9
$LIMMAX
 10
279.4
 20
215.9
  9
$ORTHOMODE
 70
     0
  9
$REGENMODE
 70
     1
  9
$FILLMODE
 70
     1
  9
$QTEXTMODE
 70
     0
  9
$MIRRTEXT
 70
     1
  9
$LTSCALE
 40
1.0
  9
$ATTMODE
 70
     1
  9
$TEXTSIZE
 40
3.5
  9
$TRACEWID
 40
1.0
  9
$TEXTSTYLE
  7
Standard
  9
$CLAYER
  8
0
  9
$CELTYPE
  6
ByLayer
  9
$CECOLOR
 62
   256
  9
$CELTSCALE
 40
1.0
  9
$DISPSILH
 70
     0
  9
$DIMSCALE
 40
1.0
  9
$DIMASZ
 40
3.5
  9
$DIMEXO
 40
1.0
  9
$DIMDLI
 40
3.75
  9
$DIMRND
 40
0.0
  9
$DIMDLE
 40
0.0
  9
$DIMEXE
 40
1.0
  9
$DIMTP
 40
0.0
  9
$DIMTM
 40
0.0
  9
$DIMTXT
 40
3.5
  9
$DIMCEN
 40
2.5
  9
$DIMTSZ
 40
0.0
  9
$DIMTOL
 70
     0
  9
$DIMLIM
 70
     0
  9
$DIMTIH
 70
     1
  9
$DIMTOH
 70
     1
  9
$DIMSE1
 70
     0
  9
$DIMSE2
 70
     0
  9
$DIMTAD
 70
     1
  9
$DIMZIN
 70
     0
  9
$DIMBLK
  1

  9
$DIMASO
 70
     1
  9
$DIMSHO
 70
     1
  9
$DIMPOST
  1

  9
$DIMAPOST
  1

  9
$DIMALT
 70
     0
  9
$DIMALTD
 70
     3
  9
$DIMALTF
 40
0.0393700787
  9
$DIMLFAC
 40
1.0
  9
$DIMTOFL
 70
     1
  9
$DIMTVP
 40
0.0
  9
$DIMTIX
 70
     0
  9
$DIMSOXD
 70
     0
  9
$DIMSAH
 70
     0
  9
$DIMBLK1
  1

  9
$DIMBLK2
  1

  9
$DIMSTYLE
  2
ISO-25
  9
$DIMCLRD
 70
     0
  9
$DIMCLRE
 70
     0
  9
$DIMCLRT
 70
     0
  9
$DIMTFAC
 40
1.0
  9
$DIMGAP
 40
1.524
  9
$DIMJUST
 70
     0
  9
$DIMSD1
 70
     0
  9
$DIMSD2
 70
     0
  9
$DIMTOLJ
 70
     0
  9
$DIMTZIN
 70
     0
  9
$DIMALTZ
 70
     0
  9
$DIMALTTZ
 70
     0
  9
$DIMUPT
 70
     0
  9
$DIMDEC
 70
     2
  9
$DIMTDEC
 70
     2
  9
$DIMALTU
 70
     2
  9
$DIMALTTD
 70
     3
  9
$DIMTXSTY
  7
Standard
  9
$DIMAUNIT
 70
     0
  9
$DIMADEC
 70
     2
  9
$DIMALTRND
 40
0.0
  9
$DIMAZIN
 70
     0
  9
$DIMDSEP
 70
    44
  9
$DIMATFIT
 70
     3
  9
$DIMFRAC
 70
     0
  9
$DIMLDRBLK
  1

  9
$DIMLUNIT
 70
     2
  9
$DIMLWD
 70
    -2
  9
$DIMLWE
 70
    -2
  9
$DIMTMOVE
 70
     0
  9
$LUNITS
 70
     2
  9
$LUPREC
 70
     2
  9
$SKETCHINC
 40
1.0
  9
$FILLETRAD
 40
10.0
  9
$AUNITS
 70
     0
  9
$AUPREC
 70
     2
  9
$MENU
  1
.
  9
$ELEVATION
 40
0.0
  9
$PELEVATION
 40
0.0
  9
$THICKNESS
 40
0.0
  9
$LIMCHECK
 70
     0
  9
$CHAMFERA
 40
0.0
  9
$CHAMFERB
 40
0.0
  9
$CHAMFERC
 40
0.0
  9
$CHAMFERD
 40
0.0
  9
$SKPOLY
 70
     0
  9
$TDCREATE
 40
2459867.36178316
  9
$TDUCREATE
 40
2459867.23678316
  9
$TDUPDATE
 40
2459867.361783426
  9
$TDUUPDATE
 40
2459867.236783426
  9
$TDINDWG
 40
0.0000000116
  9
$TDUSRTIMER
 40
0.0000000116
  9
$USRTIMER
 70
     1
  9
$ANGBASE
 50
0.0
  9
$ANGDIR
 70
     0
  9
$PDMODE
 70
     0
  9
$PDSIZE
 40
-1.0
  9
$PLINEWID
 40
0.0
  9
$SPLFRAME
 70
     0
  9
$SPLINETYPE
 70
     6
  9
$SPLINESEGS
 70
     8
  9
$HANDSEED
  5
13A
  9
$SURFTAB1
 70
     6
  9
$SURFTAB2
 70
     6
  9
$SURFTYPE
 70
     6
  9
$SURFU
 70
     6
  9
$SURFV
 70
     6
  9
$UCSBASE
  2

  9
$UCSNAME
  2

  9
$UCSORG
 10
0.0
 20
0.0
 30
0.0
  9
$UCSXDIR
 10
1.0
 20
0.0
 30
0.0
  9
$UCSYDIR
 10
0.0
 20
1.0
 30
0.0
  9
$UCSORTHOREF
  2

  9
$UCSORTHOVIEW
 70
     0
  9
$UCSORGTOP
 10
0.0
 20
0.0
 30
0.0
  9
$UCSORGBOTTOM
 10
0.0
 20
0.0
 30
0.0
  9
$UCSORGLEFT
 10
0.0
 20
0.0
 30
0.0
  9
$UCSORGRIGHT
 10
0.0
 20
0.0
 30
0.0
  9
$UCSORGFRONT
 10
0.0
 20
0.0
 30
0.0
  9
$UCSORGBACK
 10
0.0
 20
0.0
 30
0.0
  9
$PUCSBASE
  2

  9
$PUCSNAME
  2

  9
$PUCSORG
 10
0.0
 20
0.0
 30
0.0
  9
$PUCSXDIR
 10
1.0
 20
0.0
 30
0.0
  9
$PUCSYDIR
 10
0.0
 20
1.0
 30
0.0
  9
$PUCSORTHOREF
  2

  9
$PUCSORTHOVIEW
 70
     0
  9
$PUCSORGTOP
 10
0.0
 20
0.0
 30
0.0
  9
$PUCSORGBOTTOM
 10
0.0
 20
0.0
 30
0.0
  9
$PUCSORGLEFT
 10
0.0
 20
0.0
 30
0.0
  9
$PUCSORGRIGHT
 10
0.0
 20
0.0
 30
0.0
  9
$PUCSORGFRONT
 10
0.0
 20
0.0
 30
0.0
  9
$PUCSORGBACK
 10
0.0
 20
0.0
 30
0.0
  9
$USERI1
 70
     0
  9
$USERI2
 70
     0
  9
$USERI3
 70
     0
  9
$USERI4
 70
     0
  9
$USERI5
 70
     0
  9
$USERR1
 40
0.0
  9
$USERR2
 40
0.0
  9
$USERR3
 40
0.0
  9
$USERR4
 40
0.0
  9
$USERR5
 40
0.0
  9
$WORLDVIEW
 70
     1
  9
$SHADEDGE
 70
     3
  9
$SHADEDIF
 70
    70
  9
$TILEMODE
 70
     1
  9
$MAXACTVP
 70
    64
  9
$PINSBASE
 10
0.0
 20
0.0
 30
0.0
  9
$PLIMCHECK
 70
     0
  9
$PEXTMIN
 10
1.0000000000E+20
 20
1.0000000000E+20
 30
1.0000000000E+20
  9
$PEXTMAX
 10
-1.0000000000E+20
 20
-1.0000000000E+20
 30
-1.0000000000E+20
  9
$PLIMMIN
 10
0.0
 20
0.0
  9
$PLIMMAX
 10
420.0
 20
297.0
  9
$UNITMODE
 70
     0
  9
$VISRETAIN
 70
     1
  9
$PLINEGEN
 70
     0
  9
$PSLTSCALE
 70
     1
  9
$TREEDEPTH
 70
  3020
  9
$CMLSTYLE
  2
Standard
  9
$CMLJUST
 70
     0
  9
$CMLSCALE
 40
20.0
  9
$PROXYGRAPHICS
 70
     1
  9
$MEASUREMENT
 70
     1
  9
$CELWEIGHT
370
    -1
  9
$ENDCAPS
280
     0
  9
$JOINSTYLE
280
     0
  9
$LWDISPLAY
290
     1
  9
$INSUNITS
 70
     4
  9
$HYPERLINKBASE
  1

  9
$STYLESHEET
  1

  9
$XEDIT
290
     1
  9
$CEPSNTYPE
380
     0
  9
$PSTYLEMODE
290
     1
  9
$FINGERPRINTGUID
  2
{6a0621e0-adaf-4140-bb73-cbe52c495c00}
  9
$VERSIONGUID
  2
{FAEB1C32-E019-11D5-929B-00C0DF256EC4}
  9
$EXTNAMES
290
     1
  9
$PSVPSCALE
 40
0.0
  9
$OLESTARTUP
290
     0
  0
ENDSEC
  0
SECTION
  2
CLASSES
  0
CLASS
  1
ACDBDICTIONARYWDFLT
  2
AcDbDictionaryWithDefault
  3
ObjectDBX Classes
 90
        0
280
     0
281
     0
  0
CLASS
  1
VISUALSTYLE
  2
AcDbVisualStyle
  3
ObjectDBX Classes
 90
     4095
280
     0
281
     0
  0
CLASS
  1
MATERIAL
  2
AcDbMaterial
  3
ObjectDBX Classes
 90
     1153
280
     0
281
     0
  0
CLASS
  1
SCALE
  2
AcDbScale
  3
ObjectDBX Classes
 90
     1153
280
     0
281
     0
  0
CLASS
  1
TABLESTYLE
  2
AcDbTableStyle
  3
ObjectDBX Classes
 90
     4095
280
     0
281
     0
  0
CLASS
  1
MLEADERSTYLE
  2
AcDbMLeaderStyle
  3
ACDB_MLEADERSTYLE_CLASS
 90
     4095
280
     0
281
     0
  0
CLASS
  1
SUN
  2
AcDbSun
  3
SCENEOE
 90
     1153
280
     0
281
     0
  0
CLASS
  1
ACDBPLACEHOLDER
  2
AcDbPlaceHolder
  3
ObjectDBX Classes
 90
        0
280
     0
281
     0
  0
CLASS
  1
LAYOUT
  2
AcDbLayout
  3
ObjectDBX Classes
 90
        0
280
     0
281
     0
  0
ENDSEC
  0
SECTION
  2
TABLES
  0
TABLE
  2
VPORT
  5
8
330
0
100
AcDbSymbolTable
 70
     1
  0
VPORT
  5
29
330
8
100
AcDbSymbolTableRecord
100
AcDbViewportTableRecord
  2
*Active
 70
     0
 10
0.0
 20
0.0
 11
1.0
 21
1.0
 12
139.7
 22
107.95
 13
0.0
 23
0.0
 14
10.0
 24
10.0
 15
10.0
 25
10.0
 16
0.0
 26
0.0
 36
1.0
 17
0.0
 27
0.0
 37
0.0
 40
215.9
 41
1.2941176471
 42
50.0
 43
0.0
 44
0.0
 50
0.0
 51
0.0
 71
     0
 72
  2000
 73
     1
 74
     3
 75
     0
 76
     0
 77
     0
 78
     0
281
     0
 65
     1
110
0.0
120
0.0
130
0.0
111
1.0
121
0.0
131
0.0
112
0.0
122
1.0
132
0.0
 79
     0
146
0.0
  0
ENDTAB
  0
TABLE
  2
LTYPE
  5
5
330
0
100
AcDbSymbolTable
 70
     6
  0
LTYPE
  5
14
330
5
100
AcDbSymbolTableRecord
100
AcDbLinetypeTableRecord
  2
ByBlock
 70
     0
  3

 72
    65
 73
     0
 40
0.0
  0
LTYPE
  5
15
330
5
100
AcDbSymbolTableRecord
100
AcDbLinetypeTableRecord
  2
ByLayer
 70
     0
  3

 72
    65
 73
     0
 40
0.0
  0
LTYPE
  5
16
330
5
100
AcDbSymbolTableRecord
100
AcDbLinetypeTableRecord
  2
Continuous
 70
     0
  3
Solid line
 72
    65
 73
     0
 40
0.0
  0
LTYPE
  5
6E
330
5
100
AcDbSymbolTableRecord
100
AcDbLinetypeTableRecord
  2
HIDDEN
 70
     0
  3
Hidden __ __ __ __ __ __ __ __ __ __ __ __ __ __
 72
    65
 73
     2
 40
1.905
 49
1.27
 74
     0
 49
-0.635
 74
     0
  0
LTYPE
  5
6F
330
5
100
AcDbSymbolTableRecord
100
AcDbLinetypeTableRecord
  2
PHANTOM
 70
     0
  3
Phantom ______  __  __  ______  __  __  ______
 72
    65
 73
     6
 40
12.7
 49
6.35
 74
     0
 49
-1.27
 74
     0
 49
1.27
 74
     0
 49
-1.27
 74
     0
 49
1.27
 74
     0
 49
-1.27
 74
     0
  0
LTYPE
  5
70
330
5
100
AcDbSymbolTableRecord
100
AcDbLinetypeTableRecord
  2
CENTER
 70
     0
  3
Center ____ _ ____ _ ____ _ ____ _ ____ _ ____
 72
    65
 73
     4
 40
10.16
 49
6.35
 74
     0
 49
-1.27
 74
     0
 49
1.27
 74
     0
 49
-1.27
 74
     0
  0
LTYPE
  5
71
330
5
100
AcDbSymbolTableRecord
100
AcDbLinetypeTableRecord
  2
CENTERX2
 70
     0
  3
Center (2x) ________  __  ________  __  _____
 72
    65
 73
     4
 40
20.32
 49
12.7
 74
     0
 49
-2.54
 74
     0
 49
2.54
 74
     0
 49
-2.54
 74
     0
  0
LTYPE
  5
72
330
5
100
AcDbSymbolTableRecord
100
AcDbLinetypeTableRecord
  2
DOT2
 70
     0
  3
Dot (.5x) ........................................
 72
    65
 73
     2
 40
0.635
 49
0.0
 74
     0
 49
-0.635
 74
     0
  0
ENDTAB
  0
TABLE
  2
LAYER
  5
2
330
0
100
AcDbSymbolTable
 70
    17
  0
LAYER
  5
10
330
2
100
AcDbSymbolTableRecord
100
AcDbLayerTableRecord
  2
0
 70
     0
 62
     7
  6
Continuous
370
    -3
390
F
  0
LAYER
  5
73
330
2
100
AcDbSymbolTableRecord
100
AcDbLayerTableRecord
  2
FORMAT
 70
     0
 62
     7
  6
Continuous
370
    -3
390
F
  0
LAYER
  5
74
330
2
100
AcDbSymbolTableRecord
100
AcDbLayerTableRecord
  2
YARDIMCI_GEOMETRI
 70
     0
 62
    -6
  6
Continuous
290
     0
370
    -3
390
F
  0
LAYER
  5
75
330
2
100
AcDbSymbolTableRecord
100
AcDbLayerTableRecord
  2
SAYFA_CERCEVESI
 70
     0
 62
     7
  6
Continuous
370
    25
390
F
  0
LAYER
  5
76
330
2
100
AcDbSymbolTableRecord
100
AcDbLayerTableRecord
  2
ANTET
 70
     0
 62
     7
  6
Continuous
370
    -3
390
F
  0
LAYER
  5
77
330
2
100
AcDbSymbolTableRecord
100
AcDbLayerTableRecord
  2
OLCU
 70
     0
 62
   150
  6
Continuous
370
    -3
390
F
  0
LAYER
  5
78
330
2
100
AcDbSymbolTableRecord
100
AcDbLayerTableRecord
  2
METIN
 70
     0
 62
    96
  6
Continuous
370
    -3
390
F
  0
LAYER
  5
79
330
2
100
AcDbSymbolTableRecord
100
AcDbLayerTableRecord
  2
BALON
 70
     0
 62
     5
  6
Continuous
370
    -3
390
F
  0
LAYER
  5
7A
330
2
100
AcDbSymbolTableRecord
100
AcDbLayerTableRecord
  2
VURGU
 70
     0
 62
     7
  6
Continuous
370
    -3
390
F
  0
LAYER
  5
7B
330
2
100
AcDbSymbolTableRecord
100
AcDbLayerTableRecord
  2
SILIK
 70
     0
 62
     7
  6
Continuous
370
    -3
390
F
  0
LAYER
  5
7C
330
2
100
AcDbSymbolTableRecord
100
AcDbLayerTableRecord
  2
MODEL
 70
     0
 62
     7
  6
Continuous
370
    -3
390
F
  0
LAYER
  5
7D
330
2
100
AcDbSymbolTableRecord
100
AcDbLayerTableRecord
  2
DETAYLANDıRMA
 70
     0
 62
   190
  6
Continuous
370
    -3
390
F
  0
LAYER
  5
7E
330
2
100
AcDbSymbolTableRecord
100
AcDbLayerTableRecord
  2
TOLERANS
 70
     0
 62
   230
  6
Continuous
370
    -3
390
F
  0
LAYER
  5
7F
330
2
100
AcDbSymbolTableRecord
100
AcDbLayerTableRecord
  2
MERKEZ_CIZGILERI
 70
     0
 62
    30
  6
Continuous
370
    -3
390
F
  0
LAYER
  5
80
330
2
100
AcDbSymbolTableRecord
100
AcDbLayerTableRecord
  2
KESIT-DETAY_CIZGILERI
 70
     0
 62
     7
  6
Continuous
370
    -3
390
F
  0
LAYER
  5
81
330
2
100
AcDbSymbolTableRecord
100
AcDbLayerTableRecord
  2
\U+041E\U+0421\U+0415\U+0412\U+042B\U+0415
 70
     0
 62
     7
  6
Continuous
370
    -3
390
F
  0
LAYER
  5
82
330
2
100
AcDbSymbolTableRecord
100
AcDbLayerTableRecord
  2
\U+0412\U+041E\U+0414\U+042F\U+041D\U+042B\U+0415_\U+0417\U+041D\U+0410\U+041A\U+0418
 70
     0
 62
    11
  6
Continuous
370
    -3
390
F
  0
ENDTAB
  0
TABLE
  2
STYLE
  5
3
330
0
100
AcDbSymbolTable
 70
     1
  0
STYLE
  5
11
330
3
100
AcDbSymbolTableRecord
100
AcDbTextStyleTableRecord
  2
Standard
 70
     0
 40
0.0
 41
1.0
 50
0.0
 71
     0
 42
3.5
  3
txt
  4

  0
ENDTAB
  0
TABLE
  2
VIEW
  5
6
330
0
100
AcDbSymbolTable
 70
     0
  0
ENDTAB
  0
TABLE
  2
UCS
  5
7
330
0
100
AcDbSymbolTable
 70
     0
  0
ENDTAB
  0
TABLE
  2
APPID
  5
9
330
0
100
AcDbSymbolTable
 70
     1
  0
APPID
  5
12
330
9
100
AcDbSymbolTableRecord
100
AcDbRegAppTableRecord
  2
ACAD
 70
     0
  0
ENDTAB
  0
TABLE
  2
DIMSTYLE
  5
A
330
0
100
AcDbSymbolTable
 70
     1
100
AcDbDimStyleTable
  0
DIMSTYLE
105
27
330
A
100
AcDbSymbolTableRecord
100
AcDbDimStyleTableRecord
  2
ISO-25
 70
     0
 41
2.5
 42
0.625
 43
3.75
 44
1.25
 73
     0
 74
     0
 77
     1
 78
     8
140
2.5
141
2.5
143
0.0393700787
147
0.625
171
     3
172
     1
178
     0
271
     2
272
     2
274
     3
278
    44
283
     0
284
     8
340
11
  0
ENDTAB
  0
TABLE
  2
BLOCK_RECORD
  5
1
330
0
100
AcDbSymbolTable
 70
     5
  0
BLOCK_RECORD
  5
1F
330
1
100
AcDbSymbolTableRecord
100
AcDbBlockTableRecord
  2
*Model_Space
340
22
  0
BLOCK_RECORD
  5
1B
330
1
100
AcDbSymbolTableRecord
100
AcDbBlockTableRecord
  2
*Paper_Space
340
1E
  0
BLOCK_RECORD
  5
23
330
1
100
AcDbSymbolTableRecord
100
AcDbBlockTableRecord
  2
*Paper_Space0
340
26
  0
BLOCK_RECORD
  5
C4
330
1
100
AcDbSymbolTableRecord
100
AcDbBlockTableRecord
  2
SW_CENTERMARKSYMBOL_0
340
0
102
{BLKREFS
331
CF
102
}
  0
BLOCK_RECORD
  5
EF
330
1
100
AcDbSymbolTableRecord
100
AcDbBlockTableRecord
  2
SW_CENTERMARKSYMBOL_1
340
0
102
{BLKREFS
331
FA
102
}
  0
BLOCK_RECORD
  5
FB
330
1
100
AcDbSymbolTableRecord
100
AcDbBlockTableRecord
  2
SW_CENTERMARKSYMBOL_2
340
0
102
{BLKREFS
331
106
102
}
  0
BLOCK_RECORD
  5
107
330
1
100
AcDbSymbolTableRecord
100
AcDbBlockTableRecord
  2
SW_CENTERMARKSYMBOL_3
340
0
102
{BLKREFS
331
112
102
}
  0
ENDTAB
  0
ENDSEC
  0
SECTION
  2
BLOCKS
  0
BLOCK
  5
20
330
1F
100
AcDbEntity
  8
0
100
AcDbBlockBegin
  2
*Model_Space
 70
     0
 10
0.0
 20
0.0
 30
0.0
  3
*Model_Space
  1

  0
ENDBLK
  5
21
330
1F
100
AcDbEntity
  8
0
100
AcDbBlockEnd
  0
BLOCK
  5
1C
330
1B
100
AcDbEntity
 67
     1
  8
0
100
AcDbBlockBegin
  2
*Paper_Space
 70
     0
 10
0.0
 20
0.0
 30
0.0
  3
*Paper_Space
  1

  0
ENDBLK
  5
1D
330
1B
100
AcDbEntity
 67
     1
  8
0
100
AcDbBlockEnd
  0
BLOCK
  5
24
330
23
100
AcDbEntity
  8
0
100
AcDbBlockBegin
  2
*Paper_Space0
 70
     0
 10
0.0
 20
0.0
 30
0.0
  3
*Paper_Space0
  1

  0
ENDBLK
  5
25
330
23
100
AcDbEntity
  8
0
100
AcDbBlockEnd
  0
BLOCK
  5
C5
330
C4
100
AcDbEntity
  8
0
100
AcDbBlockBegin
  2
SW_CENTERMARKSYMBOL_0
 70
     0
 10
0.0
 20
0.0
 30
0.0
  3
SW_CENTERMARKSYMBOL_0
  1

  0
LINE
  5
C7
330
C4
100
AcDbEntity
  8
FORMAT
 62
     0
100
AcDbLine
 10
0.0
 20
0.0
 30
0.0
 11
0.0
 21
2.5
 31
0.0
  0
LINE
  5
C8
330
C4
100
AcDbEntity
  8
FORMAT
 62
     0
100
AcDbLine
 10
0.0
 20
0.0
 30
0.0
 11
-2.5
 21
0.0
 31
0.0
  0
LINE
  5
C9
330
C4
100
AcDbEntity
  8
FORMAT
 62
     0
100
AcDbLine
 10
0.0
 20
0.0
 30
0.0
 11
0.0
 21
-2.5
 31
0.0
  0
LINE
  5
CA
330
C4
100
AcDbEntity
  8
FORMAT
 62
     0
100
AcDbLine
 10
0.0
 20
0.0
 30
0.0
 11
2.5
 21
0.0
 31
0.0
  0
LINE
  5
CB
330
C4
100
AcDbEntity
  8
FORMAT
 62
     0
100
AcDbLine
 10
0.0
 20
5.0
 30
0.0
 11
0.0
 21
9.5
 31
0.0
  0
LINE
  5
CC
330
C4
100
AcDbEntity
  8
FORMAT
 62
     0
100
AcDbLine
 10
-5.0
 20
0.0
 30
0.0
 11
-9.5
 21
0.0
 31
0.0
  0
LINE
  5
CD
330
C4
100
AcDbEntity
  8
FORMAT
 62
     0
100
AcDbLine
 10
0.0
 20
-5.0
 30
0.0
 11
0.0
 21
-9.5
 31
0.0
  0
LINE
  5
CE
330
C4
100
AcDbEntity
  8
FORMAT
 62
     0
100
AcDbLine
 10
5.0
 20
0.0
 30
0.0
 11
9.5
 21
0.0
 31
0.0
  0
ENDBLK
  5
C6
330
C4
100
AcDbEntity
  8
0
100
AcDbBlockEnd
  0
BLOCK
  5
F0
330
EF
100
AcDbEntity
  8
0
100
AcDbBlockBegin
  2
SW_CENTERMARKSYMBOL_1
 70
     0
 10
0.0
 20
0.0
 30
0.0
  3
SW_CENTERMARKSYMBOL_1
  1

  0
LINE
  5
F2
330
EF
100
AcDbEntity
  8
FORMAT
 62
     0
100
AcDbLine
 10
0.0
 20
0.0
 30
0.0
 11
0.0
 21
2.5
 31
0.0
  0
LINE
  5
F3
330
EF
100
AcDbEntity
  8
FORMAT
 62
     0
100
AcDbLine
 10
0.0
 20
0.0
 30
0.0
 11
-2.5
 21
0.0
 31
0.0
  0
LINE
  5
F4
330
EF
100
AcDbEntity
  8
FORMAT
 62
     0
100
AcDbLine
 10
0.0
 20
0.0
 30
0.0
 11
0.0
 21
-2.5
 31
0.0
  0
LINE
  5
F5
330
EF
100
AcDbEntity
  8
FORMAT
 62
     0
100
AcDbLine
 10
0.0
 20
0.0
 30
0.0
 11
2.5
 21
0.0
 31
0.0
  0
LINE
  5
F6
330
EF
100
AcDbEntity
  8
FORMAT
 62
     0
100
AcDbLine
 10
0.0
 20
5.0
 30
0.0
 11
0.0
 21
12.5
 31
0.0
  0
LINE
  5
F7
330
EF
100
AcDbEntity
  8
FORMAT
 62
     0
100
AcDbLine
 10
-5.0
 20
0.0
 30
0.0
 11
-12.5
 21
0.0
 31
0.0
  0
LINE
  5
F8
330
EF
100
AcDbEntity
  8
FORMAT
 62
     0
100
AcDbLine
 10
0.0
 20
-5.0
 30
0.0
 11
0.0
 21
-12.5
 31
0.0
  0
LINE
  5
F9
330
EF
100
AcDbEntity
  8
FORMAT
 62
     0
100
AcDbLine
 10
5.0
 20
0.0
 30
0.0
 11
12.5
 21
0.0
 31
0.0
  0
ENDBLK
  5
F1
330
EF
100
AcDbEntity
  8
0
100
AcDbBlockEnd
  0
BLOCK
  5
FC
330
FB
100
AcDbEntity
  8
0
100
AcDbBlockBegin
  2
SW_CENTERMARKSYMBOL_2
 70
     0
 10
0.0
 20
0.0
 30
0.0
  3
SW_CENTERMARKSYMBOL_2
  1

  0
LINE
  5
FE
330
FB
100
AcDbEntity
  8
FORMAT
 62
     0
100
AcDbLine
 10
0.0
 20
0.0
 30
0.0
 11
0.0
 21
2.5
 31
0.0
  0
LINE
  5
FF
330
FB
100
AcDbEntity
  8
FORMAT
 62
     0
100
AcDbLine
 10
0.0
 20
0.0
 30
0.0
 11
-2.5
 21
0.0
 31
0.0
  0
LINE
  5
100
330
FB
100
AcDbEntity
  8
FORMAT
 62
     0
100
AcDbLine
 10
0.0
 20
0.0
 30
0.0
 11
0.0
 21
-2.5
 31
0.0
  0
LINE
  5
101
330
FB
100
AcDbEntity
  8
FORMAT
 62
     0
100
AcDbLine
 10
0.0
 20
0.0
 30
0.0
 11
2.5
 21
0.0
 31
0.0
  0
LINE
  5
102
330
FB
100
AcDbEntity
  8
FORMAT
 62
     0
100
AcDbLine
 10
0.0
 20
5.0
 30
0.0
 11
0.0
 21
9.5
 31
0.0
  0
LINE
  5
103
330
FB
100
AcDbEntity
  8
FORMAT
 62
     0
100
AcDbLine
 10
-5.0
 20
0.0
 30
0.0
 11
-9.5
 21
0.0
 31
0.0
  0
LINE
  5
104
330
FB
100
AcDbEntity
  8
FORMAT
 62
     0
100
AcDbLine
 10
0.0
 20
-5.0
 30
0.0
 11
0.0
 21
-9.5
 31
0.0
  0
LINE
  5
105
330
FB
100
AcDbEntity
  8
FORMAT
 62
     0
100
AcDbLine
 10
5.0
 20
0.0
 30
0.0
 11
9.5
 21
0.0
 31
0.0
  0
ENDBLK
  5
FD
330
FB
100
AcDbEntity
  8
0
100
AcDbBlockEnd
  0
BLOCK
  5
108
330
107
100
AcDbEntity
  8
0
100
AcDbBlockBegin
  2
SW_CENTERMARKSYMBOL_3
 70
     0
 10
0.0
 20
0.0
 30
0.0
  3
SW_CENTERMARKSYMBOL_3
  1

  0
LINE
  5
10A
330
107
100
AcDbEntity
  8
FORMAT
 62
     0
100
AcDbLine
 10
0.0
 20
0.0
 30
0.0
 11
0.0
 21
2.5
 31
0.0
  0
LINE
  5
10B
330
107
100
AcDbEntity
  8
FORMAT
 62
     0
100
AcDbLine
 10
0.0
 20
0.0
 30
0.0
 11
-2.5
 21
0.0
 31
0.0
  0
LINE
  5
10C
330
107
100
AcDbEntity
  8
FORMAT
 62
     0
100
AcDbLine
 10
0.0
 20
0.0
 30
0.0
 11
0.0
 21
-2.5
 31
0.0
  0
LINE
  5
10D
330
107
100
AcDbEntity
  8
FORMAT
 62
     0
100
AcDbLine
 10
0.0
 20
0.0
 30
0.0
 11
2.5
 21
0.0
 31
0.0
  0
LINE
  5
10E
330
107
100
AcDbEntity
  8
FORMAT
 62
     0
100
AcDbLine
 10
0.0
 20
5.0
 30
0.0
 11
0.0
 21
9.5
 31
0.0
  0
LINE
  5
10F
330
107
100
AcDbEntity
  8
FORMAT
 62
     0
100
AcDbLine
 10
-5.0
 20
0.0
 30
0.0
 11
-9.5
 21
0.0
 31
0.0
  0
LINE
  5
110
330
107
100
AcDbEntity
  8
FORMAT
 62
     0
100
AcDbLine
 10
0.0
 20
-5.0
 30
0.0
 11
0.0
 21
-9.5
 31
0.0
  0
LINE
  5
111
330
107
100
AcDbEntity
  8
FORMAT
 62
     0
100
AcDbLine
 10
5.0
 20
0.0
 30
0.0
 11
9.5
 21
0.0
 31
0.0
  0
ENDBLK
  5
109
330
107
100
AcDbEntity
  8
0
100
AcDbBlockEnd
  0
ENDSEC
  0
SECTION
  2
ENTITIES
  0
LINE
  5
83
330
1F
100
AcDbEntity
  8
0
  6
Continuous
 62
     7
370
    25
100
AcDbLine
 10
173.8958311684
 20
60.4564555559
 30
0.0
 11
203.8958311684
 21
60.4564555559
 31
0.0
  0
LINE
  5
84
330
1F
100
AcDbEntity
  8
0
  6
Continuous
 62
     7
370
    25
100
AcDbLine
 10
83.8958311684
 20
60.4564555559
 30
0.0
 11
113.8958311684
 21
60.4564555559
 31
0.0
  0
LINE
  5
85
330
1F
100
AcDbEntity
  8
0
  6
Continuous
 62
     7
370
    25
100
AcDbLine
 10
86.9203791172
 20
114.4564555559
 30
0.0
 11
83.8958311684
 21
114.4564555559
 31
0.0
  0
LINE
  5
86
330
1F
100
AcDbEntity
  8
0
  6
Continuous
 62
     7
370
    25
100
AcDbLine
 10
133.9318277949
 20
114.4564555559
 30
0.0
 11
100.878250732
 21
114.4564555559
 31
0.0
  0
LINE
  5
87
330
1F
100
AcDbEntity
  8
0
  6
Continuous
 62
     7
370
    25
100
AcDbLine
 10
186.9203791172
 20
114.4564555559
 30
0.0
 11
153.8649428766
 21
114.4564555559
 31
0.0
  0
LINE
  5
88
330
1F
100
AcDbEntity
  8
0
  6
Continuous
 62
     7
370
    25
100
AcDbLine
 10
203.8958311684
 20
114.4564555559
 30
0.0
 11
200.878250732
 21
114.4564555559
 31
0.0
  0
LINE
  5
89
330
1F
100
AcDbEntity
  8
0
  6
Continuous
 62
     7
370
    25
100
AcDbLine
 10
133.8958311684
 20
163.4564555559
 30
0.0
 11
133.8958311684
 21
114.4431442051
 31
0.0
  0
LINE
  5
8A
330
1F
100
AcDbEntity
  8
0
  6
Continuous
 62
     7
370
    25
100
AcDbLine
 10
153.8958311684
 20
114.4450350923
 30
0.0
 11
153.8958311684
 21
163.4564555559
 31
0.0
  0
LINE
  5
8B
330
1F
100
AcDbEntity
  8
0
  6
Continuous
 62
     7
370
    25
100
AcDbLine
 10
100.8958311684
 20
114.4519163627
 30
0.0
 11
100.8958311684
 21
129.4564555559
 31
0.0
  0
LINE
  5
8C
330
1F
100
AcDbEntity
  8
0
  6
Continuous
 62
     7
370
    25
100
AcDbLine
 10
86.8958311684
 20
129.4564555559
 30
0.0
 11
86.8958311684
 21
114.450104335
 31
0.0
  0
LINE
  5
8D
330
1F
100
AcDbEntity
  8
0
  6
Continuous
 62
     7
370
    25
100
AcDbLine
 10
200.8958311684
 20
114.4519163627
 30
0.0
 11
200.8958311684
 21
129.4564555559
 31
0.0
  0
LINE
  5
8E
330
1F
100
AcDbEntity
  8
0
  6
Continuous
 62
     7
370
    25
100
AcDbLine
 10
186.8958311684
 20
129.4564555559
 30
0.0
 11
186.8958311684
 21
114.450104335
 31
0.0
  0
LINE
  5
8F
330
1F
100
AcDbEntity
  8
0
  6
Continuous
 62
     7
370
    25
100
AcDbLine
 10
203.8958311684
 20
89.4564555559
 30
0.0
 11
83.8958311684
 21
89.4564555559
 31
0.0
  0
LINE
  5
90
330
1F
100
AcDbEntity
  8
0
  6
Continuous
 62
     7
370
    25
100
AcDbLine
 10
83.8958311684
 20
96.4564555559
 30
0.0
 11
83.8958311684
 21
89.4564555559
 31
0.0
  0
LINE
  5
91
330
1F
100
AcDbEntity
  8
0
  6
Continuous
 62
     7
370
    25
100
AcDbLine
 10
203.8958311684
 20
96.4564555559
 30
0.0
 11
83.8958311684
 21
96.4564555559
 31
0.0
  0
LINE
  5
92
330
1F
100
AcDbEntity
  8
0
  6
Continuous
 62
     7
370
    25
100
AcDbLine
 10
203.8958311684
 20
96.4564555559
 30
0.0
 11
203.8958311684
 21
89.4564555559
 31
0.0
  0
LINE
  5
93
330
1F
100
AcDbEntity
  8
0
  6
Continuous
 62
     7
370
    25
100
AcDbLine
 10
83.8958311684
 20
85.4564555559
 30
0.0
 11
83.8958311684
 21
78.4564555559
 31
0.0
  0
LINE
  5
94
330
1F
100
AcDbEntity
  8
0
  6
Continuous
 62
     7
370
    25
100
AcDbLine
 10
203.8958311684
 20
85.4564555559
 30
0.0
 11
83.8958311684
 21
85.4564555559
 31
0.0
  0
LINE
  5
95
330
1F
100
AcDbEntity
  8
0
  6
Continuous
 62
     7
370
    25
100
AcDbLine
 10
203.8958311684
 20
85.4564555559
 30
0.0
 11
203.8958311684
 21
78.4564555559
 31
0.0
  0
LINE
  5
96
330
1F
100
AcDbEntity
  8
0
  6
Continuous
 62
     7
370
    25
100
AcDbLine
 10
203.8958311684
 20
78.4564555559
 30
0.0
 11
83.8958311684
 21
78.4564555559
 31
0.0
  0
SPLINE
  5
97
330
1F
100
AcDbEntity
  8
0
  6
Continuous
 62
     7
370
    25
100
AcDbSpline
210
0.0
220
0.0
230
1.0
 70
     8
 71
     3
 72
    27
 73
    23
 74
     0
 42
0.00000001
 43
0.00000001
 40
0.0
 40
0.0
 40
0.0
 40
0.0
 40
0.0316993369375115
 40
0.0828414890672673
 40
0.1354421134046146
 40
0.1871063414210102
 40
0.2401870949624489
 40
0.2933273046697489
 40
0.3479887535107551
 40
0.4013660446026011
 40
0.456379131815011
 40
0.5082502102925001
 40
0.5616826171092273
 40
0.6126810215126139
 40
0.6651018897110961
 40
0.7171854392605647
 40
0.7707008523099129
 40
0.8241514432878653
 40
0.8791718496131801
 40
0.9321781212326397
 40
0.986812922794443
 40
1.0
 40
1.0
 40
1.0
 40
1.0
 10
186.9203791172492
 20
114.450103011133
 30
0.0
 10
186.9174766886595
 20
114.4508485953991
 30
0.0
 10
186.9098916244433
 20
114.452797068673
 30
0.0
 10
187.1115013824767
 20
114.4008348271259
 30
0.0
 10
187.4907192054749
 20
114.3071000103664
 30
0.0
 10
188.0541582965644
 20
114.1771555006753
 30
0.0
 10
188.7735910812985
 20
114.0277468124633
 30
0.0
 10
189.6492333261057
 20
113.8713212303354
 30
0.0
 10
190.6482384996149
 20
113.72773460227
 30
0.0
 10
191.7551109345206
 20
113.6127420407681
 30
0.0
 10
192.9082427913153
 20
113.5431542126256
 30
0.0
 10
194.0907032074612
 20
113.5252658917807
 30
0.0
 10
195.238455664209
 20
113.5596009850076
 30
0.0
 10
196.3506397917658
 20
113.641315440708
 30
0.0
 10
197.3856774805748
 20
113.7595482818388
 30
0.0
 10
198.3405169272576
 20
113.9043799148192
 30
0.0
 10
199.1797694152839
 20
114.0596304766412
 30
0.0
 10
199.8851162596376
 20
114.2098975994979
 30
0.0
 10
200.4229981512593
 20
114.3366804608114
 30
0.0
 10
200.7621953656613
 20
114.4217486689506
 30
0.0
 10
200.9104076336938
 20
114.4602240318568
 30
0.0
 10
200.8834854068363
 20
114.4532631462787
 30
0.0
 10
200.8782507319707
 20
114.4519096931275
 30
0.0
  0
SPLINE
  5
98
330
1F
100
AcDbEntity
  8
0
  6
Continuous
 62
     7
370
    25
100
AcDbSpline
210
0.0
220
0.0
230
1.0
 70
     8
 71
     3
 72
    17
 73
    13
 74
     0
 42
0.00000001
 43
0.00000001
 40
0.0
 40
0.0
 40
0.0
 40
0.0
 40
0.1007582847240523
 40
0.2045827070599411
 40
0.3053035694373807
 40
0.4087166591359436
 40
0.5138814221195656
 40
0.6218971730380857
 40
0.7303005811419073
 40
0.8421141580297523
 40
0.945882855036094
 40
1.0
 40
1.0
 40
1.0
 40
1.0
 10
143.8958311684049
 20
112.5363279638784
 30
0.0
 10
143.3634404378175
 20
112.5462407102035
 30
0.0
 10
142.2824579937883
 20
112.5663678539232
 30
0.0
 10
140.7170663527015
 20
112.7229855657954
 30
0.0
 10
139.2307833446121
 20
112.9534307841605
 30
0.0
 10
137.8655475877147
 20
113.2408192336528
 30
0.0
 10
136.6321098822318
 20
113.5592258062945
 30
0.0
 10
135.5791777207275
 20
113.8741759655949
 30
0.0
 10
134.7351005404132
 20
114.1542855173194
 30
0.0
 10
134.1802333067519
 20
114.3514640366289
 30
0.0
 10
133.9050739523252
 20
114.4530181746099
 30
0.0
 10
133.9249984497004
 20
114.4456646863294
 30
0.0
 10
133.9318277948736
 20
114.4431441956615
 30
0.0
  0
SPLINE
  5
99
330
1F
100
AcDbEntity
  8
0
  6
Continuous
 62
     7
370
    25
100
AcDbSpline
210
0.0
220
0.0
230
1.0
 70
     8
 71
     3
 72
    17
 73
    13
 74
     0
 42
0.00000001
 43
0.00000001
 40
0.0
 40
0.0
 40
0.0
 40
0.0
 40
0.0410864419745208
 40
0.1451426866816413
 40
0.2439461753664023
 40
0.3454021971285625
 40
0.4483689048082096
 40
0.5540395345885794
 40
0.6621096635746544
 40
0.7733975858416763
 40
0.884659431404852
 40
1.0
 40
1.0
 40
1.0
 40
1.0
 10
153.8649428766348
 20
114.4450328977506
 30
0.0
 10
153.8725211933039
 20
114.4478344343095
 30
0.0
 10
153.8992924878965
 20
114.457731191572
 30
0.0
 10
153.6710886075035
 20
114.3732946251751
 30
0.0
 10
153.1971266480145
 20
114.2037245854052
 30
0.0
 10
152.4806376806805
 20
113.9610670510754
 30
0.0
 10
151.535320838073
 20
113.6675894487338
 30
0.0
 10
150.3674028389175
 20
113.3481592004119
 30
0.0
 10
148.9857301839574
 20
113.033514060608
 30
0.0
 10
147.4219042740839
 20
112.7670395310592
 30
0.0
 10
145.7033252171206
 20
112.5748446954485
 30
0.0
 10
144.5055158287903
 20
112.5493200179453
 30
0.0
 10
143.8958311684049
 20
112.5363279638784
 30
0.0
  0
SPLINE
  5
9A
330
1F
100
AcDbEntity
  8
0
  6
Continuous
 62
     7
370
    25
100
AcDbSpline
210
0.0
220
0.0
230
1.0
 70
     8
 71
     3
 72
    27
 73
    23
 74
     0
 42
0.00000001
 43
0.00000001
 40
0.0
 40
0.0
 40
0.0
 40
0.0
 40
0.0316993369375115
 40
0.0828414890672673
 40
0.1354421134046146
 40
0.1871063414210102
 40
0.2401870949624489
 40
0.2933273046697489
 40
0.3479887535107551
 40
0.4013660446026011
 40
0.456379131815011
 40
0.5082502102925001
 40
0.5616826171092273
 40
0.6126810215126139
 40
0.6651018897110961
 40
0.7171854392605647
 40
0.7707008523099129
 40
0.8241514432878653
 40
0.8791718496131801
 40
0.9321781212326397
 40
0.986812922794443
 40
1.0
 40
1.0
 40
1.0
 40
1.0
 10
86.92037911724925
 20
114.450103011133
 30
0.0
 10
86.91747668865953
 20
114.4508485953991
 30
0.0
 10
86.90989162444332
 20
114.452797068673
 30
0.0
 10
87.1115013824767
 20
114.4008348271259
 30
0.0
 10
87.49071920547492
 20
114.3071000103664
 30
0.0
 10
88.05415829656441
 20
114.1771555006753
 30
0.0
 10
88.7735910812985
 20
114.0277468124633
 30
0.0
 10
89.64923332610576
 20
113.8713212303354
 30
0.0
 10
90.64823849961492
 20
113.72773460227
 30
0.0
 10
91.75511093452067
 20
113.6127420407681
 30
0.0
 10
92.90824279131529
 20
113.5431542126256
 30
0.0
 10
94.09070320746127
 20
113.5252658917807
 30
0.0
 10
95.23845566420903
 20
113.5596009850076
 30
0.0
 10
96.3506397917658
 20
113.641315440708
 30
0.0
 10
97.38567748057488
 20
113.7595482818388
 30
0.0
 10
98.3405169272576
 20
113.9043799148192
 30
0.0
 10
99.17976941528387
 20
114.0596304766412
 30
0.0
 10
99.88511625963761
 20
114.2098975994979
 30
0.0
 10
100.4229981512594
 20
114.3366804608114
 30
0.0
 10
100.7621953656613
 20
114.4217486689506
 30
0.0
 10
100.9104076336938
 20
114.4602240318568
 30
0.0
 10
100.8834854068363
 20
114.4532631462787
 30
0.0
 10
100.8782507319707
 20
114.4519096931275
 30
0.0
  0
LINE
  5
9B
330
1F
100
AcDbEntity
  8
0
  6
Continuous
 62
     7
370
    25
100
AcDbLine
 10
113.8958311684
 20
77.4564555559
 30
0.0
 11
173.8958311684
 21
77.4564555559
 31
0.0
  0
LINE
  5
9C
330
1F
100
AcDbEntity
  8
0
  6
Continuous
 62
     7
370
    25
100
AcDbLine
 10
113.8958311684
 20
60.4564555559
 30
0.0
 11
113.8958311684
 21
77.4564555559
 31
0.0
  0
LINE
  5
9D
330
1F
100
AcDbEntity
  8
0
  6
Continuous
 62
     7
370
    25
100
AcDbLine
 10
173.8958311684
 20
77.4564555559
 30
0.0
 11
173.8958311684
 21
60.4564555559
 31
0.0
  0
LINE
  5
9E
330
1F
100
AcDbEntity
  8
0
  6
Continuous
 62
     7
370
    25
100
AcDbLine
 10
83.8958311684
 20
78.4564555559
 30
0.0
 11
83.8958311684
 21
60.4564555559
 31
0.0
  0
LINE
  5
9F
330
1F
100
AcDbEntity
  8
0
  6
Continuous
 62
     7
370
    25
100
AcDbLine
 10
83.8958311684
 20
114.4564555559
 30
0.0
 11
83.8958311684
 21
96.4564555559
 31
0.0
  0
LINE
  5
A0
330
1F
100
AcDbEntity
  8
0
  6
Continuous
 62
     7
370
    25
100
AcDbLine
 10
203.8958311684
 20
78.4564555559
 30
0.0
 11
203.8958311684
 21
60.4564555559
 31
0.0
  0
LINE
  5
A1
330
1F
100
AcDbEntity
  8
0
  6
Continuous
 62
     7
370
    25
100
AcDbLine
 10
203.8958311684
 20
114.4564555559
 30
0.0
 11
203.8958311684
 21
96.4564555559
 31
0.0
  0
LINE
  5
A2
330
1F
100
AcDbEntity
  8
0
  6
Continuous
 62
     7
370
    25
100
AcDbLine
 10
83.8958311684
 20
89.4564555559
 30
0.0
 11
83.8958311684
 21
85.4564555559
 31
0.0
  0
LINE
  5
A3
330
1F
100
AcDbEntity
  8
0
  6
Continuous
 62
     7
370
    25
100
AcDbLine
 10
203.8958311684
 20
89.4564555559
 30
0.0
 11
203.8958311684
 21
85.4564555559
 31
0.0
  0
LINE
  5
A4
330
1F
100
AcDbEntity
  8
0
  6
Continuous
 62
     7
370
    25
100
AcDbLine
 10
143.8958311684
 20
163.4564555559
 30
0.0
 11
153.8958311684
 21
163.4564555559
 31
0.0
  0
LINE
  5
A5
330
1F
100
AcDbEntity
  8
0
  6
Continuous
 62
     7
370
    25
100
AcDbLine
 10
133.8958311684
 20
163.4564555559
 30
0.0
 11
143.8958311684
 21
163.4564555559
 31
0.0
  0
LINE
  5
A6
330
1F
100
AcDbEntity
  8
0
  6
Continuous
 62
     7
370
    25
100
AcDbLine
 10
100.8958311684
 20
129.4564555559
 30
0.0
 11
86.8958311684
 21
129.4564555559
 31
0.0
  0
LINE
  5
A7
330
1F
100
AcDbEntity
  8
0
  6
Continuous
 62
     7
370
    25
100
AcDbLine
 10
186.8958311684
 20
129.4564555559
 30
0.0
 11
200.8958311684
 21
129.4564555559
 31
0.0
  0
LINE
  5
A8
330
1F
100
AcDbEntity
  8
0
  6
Continuous
 62
     7
370
    25
100
AcDbLine
 10
321.9059468879
 20
113.5372516939
 30
0.0
 11
321.9059468879
 21
129.4564555559
 31
0.0
  0
LINE
  5
A9
330
1F
100
AcDbEntity
  8
0
  6
Continuous
 62
     7
370
    25
100
AcDbLine
 10
307.9059468879
 20
129.4564555559
 30
0.0
 11
307.9059468879
 21
113.5332651767
 31
0.0
  0
LINE
  5
AA
330
1F
100
AcDbEntity
  8
0
  6
Continuous
 62
     7
370
    25
100
AcDbLine
 10
304.9059468879
 20
163.4564555559
 30
0.0
 11
304.9059468879
 21
112.5390350421
 31
0.0
  0
LINE
  5
AB
330
1F
100
AcDbEntity
  8
0
  6
Continuous
 62
     7
370
    25
100
AcDbLine
 10
324.9059468879
 20
112.5363279639
 30
0.0
 11
324.9059468879
 21
163.4564555559
 31
0.0
  0
LINE
  5
AC
330
1F
100
AcDbEntity
  8
0
  6
Continuous
 62
     7
370
    25
100
AcDbLine
 10
340.3617910107
 20
96.4564555559
 30
0.0
 11
355.3617910107
 21
96.4564555559
 31
0.0
  0
LINE
  5
AD
330
1F
100
AcDbEntity
  8
0
  6
Continuous
 62
     7
370
    25
100
AcDbLine
 10
355.3617910107
 20
96.4564555559
 30
0.0
 11
355.3617910107
 21
89.4564555559
 31
0.0
  0
LINE
  5
AE
330
1F
100
AcDbEntity
  8
0
  6
Continuous
 62
     7
370
    25
100
AcDbLine
 10
355.3617910107
 20
89.4564555559
 30
0.0
 11
334.8056956301
 21
89.4564555559
 31
0.0
  0
ARC
  5
AF
330
1F
100
AcDbEntity
  8
0
  6
Continuous
 62
     7
370
    25
100
AcDbCircle
 10
314.9059468879
 20
87.4564555559
 30
0.0
 40
20.00000000000003
100
AcDbArc
 50
5.7391704773
 51
354.2608295227
  0
LINE
  5
B0
330
1F
100
AcDbEntity
  8
0
  6
Continuous
 62
     7
370
    25
100
AcDbLine
 10
334.8056956301
 20
85.4564555559
 30
0.0
 11
355.3617910107
 21
85.4564555559
 31
0.0
  0
LINE
  5
B1
330
1F
100
AcDbEntity
  8
0
  6
Continuous
 62
     7
370
    25
100
AcDbLine
 10
355.3617910107
 20
85.4564555559
 30
0.0
 11
355.3617910107
 21
78.4564555559
 31
0.0
  0
LINE
  5
B2
330
1F
100
AcDbEntity
  8
0
  6
Continuous
 62
     7
370
    25
100
AcDbLine
 10
355.3617910107
 20
78.4564555559
 30
0.0
 11
340.3617910107
 21
78.4564555559
 31
0.0
  0
ARC
  5
B3
330
1F
100
AcDbEntity
  8
0
  6
Continuous
 62
     7
370
    25
100
AcDbCircle
 10
314.9059468879
 20
87.4564555559
 30
0.0
 40
27.00000000000003
100
AcDbArc
 50
19.4712206345
 51
340.5287793655
  0
LINE
  5
B4
330
1F
100
AcDbEntity
  8
0
  6
Continuous
 62
     7
370
    25
100
AcDbLine
 10
321.9059468879
 20
129.4564555559
 30
0.0
 11
307.9059468879
 21
129.4564555559
 31
0.0
  0
LINE
  5
B5
330
1F
100
AcDbEntity
  8
0
  6
Continuous
 62
     7
370
    25
100
AcDbLine
 10
304.9059468879
 20
163.4564555559
 30
0.0
 11
324.9059468879
 21
163.4564555559
 31
0.0
  0
LINE
  5
B6
330
1F
100
AcDbEntity
  8
0
  6
Continuous
 62
     7
370
    25
100
AcDbLine
 10
83.8958311684
 20
213.6318774473
 30
0.0
 11
203.8958311684
 21
213.6318774473
 31
0.0
  0
LINE
  5
B7
330
1F
100
AcDbEntity
  8
0
  6
Continuous
 62
     7
370
    25
100
AcDbLine
 10
203.8958311684
 20
266.08772157
 30
0.0
 11
83.8958311684
 21
266.08772157
 31
0.0
  0
LINE
  5
B8
330
1F
100
AcDbEntity
  8
0
  6
Continuous
 62
     7
370
    25
100
AcDbLine
 10
203.8958311684
 20
266.08772157
 30
0.0
 11
203.8958311684
 21
213.6318774473
 31
0.0
  0
LINE
  5
B9
330
1F
100
AcDbEntity
  8
0
  6
Continuous
 62
     7
370
    25
100
AcDbLine
 10
83.8958311684
 20
266.08772157
 30
0.0
 11
83.8958311684
 21
213.6318774473
 31
0.0
  0
LINE
  5
BA
330
1F
100
AcDbEntity
  8
0
  6
Continuous
 62
     7
370
    25
100
AcDbLine
 10
113.8958311684
 20
265.7117498552
 30
0.0
 11
173.8958311684
 21
265.7117498552
 31
0.0
  0
LINE
  5
BB
330
1F
100
AcDbEntity
  8
0
  6
Continuous
 62
     7
370
    25
100
AcDbLine
 10
113.8958311684
 20
215.5520050393
 30
0.0
 11
113.8958311684
 21
265.7117498552
 31
0.0
  0
LINE
  5
BC
330
1F
100
AcDbEntity
  8
0
  6
Continuous
 62
     7
370
    25
100
AcDbLine
 10
173.8958311684
 20
215.5520050393
 30
0.0
 11
113.8958311684
 21
215.5520050393
 31
0.0
  0
LINE
  5
BD
330
1F
100
AcDbEntity
  8
0
  6
Continuous
 62
     7
370
    25
100
AcDbLine
 10
173.8958311684
 20
265.7117498552
 30
0.0
 11
173.8958311684
 21
215.5520050393
 31
0.0
  0
SPLINE
  5
BE
330
1F
100
AcDbEntity
  8
0
  6
Continuous
 62
     7
370
    25
100
AcDbSpline
210
0.0
220
0.0
230
1.0
 70
    11
 71
     3
 72
    89
 73
    85
 74
     0
 42
0.00000001
 43
0.00000001
 40
0.0
 40
0.0
 40
0.0
 40
0.0
 40
0.03125
 40
0.03125
 40
0.046875
 40
0.046875
 40
0.0625
 40
0.0625
 40
0.09375
 40
0.09375
 40
0.1093749999999999
 40
0.1093749999999999
 40
0.1249999999999999
 40
0.1249999999999999
 40
0.15625
 40
0.15625
 40
0.1875
 40
0.1875
 40
0.203125
 40
0.203125
 40
0.21875
 40
0.21875
 40
0.25
 40
0.25
 40
0.28125
 40
0.28125
 40
0.3125
 40
0.3125
 40
0.34375
 40
0.34375
 40
0.3593750000000001
 40
0.3593750000000001
 40
0.3750000000000001
 40
0.3750000000000001
 40
0.4062500000000001
 40
0.4062500000000001
 40
0.4375000000000001
 40
0.4375000000000001
 40
0.4687500000000001
 40
0.4687500000000001
 40
0.4843750000000001
 40
0.4843750000000001
 40
0.5
 40
0.515625
 40
0.515625
 40
0.53125
 40
0.53125
 40
0.5625
 40
0.5625
 40
0.59375
 40
0.59375
 40
0.625
 40
0.625
 40
0.65625
 40
0.65625
 40
0.671875
 40
0.671875
 40
0.6875
 40
0.6875
 40
0.71875
 40
0.71875
 40
0.7499999999999999
 40
0.7499999999999999
 40
0.7812499999999999
 40
0.7812499999999999
 40
0.7968749999999999
 40
0.7968749999999999
 40
0.8124999999999999
 40
0.8124999999999999
 40
0.8281249999999999
 40
0.8281249999999999
 40
0.8437499999999999
 40
0.8437499999999999
 40
0.8749999999999999
 40
0.8749999999999999
 40
0.9062499999999999
 40
0.9062499999999999
 40
0.9374999999999999
 40
0.9374999999999999
 40
0.9531249999999999
 40
0.9531249999999999
 40
0.9687499999999999
 40
0.9687499999999999
 40
1.0
 40
1.0
 40
1.0
 40
1.0
 10
143.8958311684049
 20
233.6318774472615
 30
0.0
 10
144.3623054304834
 20
233.6318774472615
 30
0.0
 10
144.8201770956626
 20
233.678031528335
 30
0.0
 10
145.4948126289461
 20
233.8130905021225
 30
0.0
 10
145.7176485640904
 20
233.8691665819341
 30
0.0
 10
146.1591937471597
 20
234.0038712079514
 30
0.0
 10
146.3775037153643
 20
234.0825446411836
 30
0.0
 10
147.011733693245
 20
234.3468963974814
 30
0.0
 10
147.4122173672239
 20
234.5620272062718
 30
0.0
 10
147.9806869290823
 20
234.9427679496088
 30
0.0
 10
148.1655868856886
 20
235.0801935094769
 30
0.0
 10
148.5178866726048
 20
235.3698805500345
 30
0.0
 10
148.6858483079457
 20
235.5223801962626
 30
0.0
 10
149.1659426221408
 20
236.0025329271977
 30
0.0
 10
149.4546438021558
 20
236.3527408016238
 30
0.0
 10
149.9666144682713
 20
237.1166251867186
 30
0.0
 10
150.1816048989489
 20
237.5179335031225
 30
0.0
 10
150.4445739865126
 20
238.1487610440309
 30
0.0
 10
150.5222332551594
 20
238.3638818952654
 30
0.0
 10
150.6569429643371
 20
238.8042079689028
 30
0.0
 10
150.714114499756
 20
239.0305312298275
 30
0.0
 10
150.8501564032231
 20
239.709624929209
 30
0.0
 10
150.8955221020394
 20
240.166395657337
 30
0.0
 10
150.8961371175665
 20
241.0880167694961
 30
0.0
 10
150.8497736464709
 20
241.5559092115629
 30
0.0
 10
150.6693043286449
 20
242.457038272284
 30
0.0
 10
150.5358112423987
 20
242.895483241303
 30
0.0
 10
150.1809040417589
 20
243.7481421264059
 30
0.0
 10
149.9637737123397
 20
244.151307145359
 30
0.0
 10
149.5844944011136
 20
244.7173013731124
 30
0.0
 10
149.4489050065662
 20
244.8998383545672
 30
0.0
 10
149.1590112834331
 20
245.2525975681012
 30
0.0
 10
149.0043355087847
 20
245.4230090880152
 30
0.0
 10
148.5215093681114
 20
245.9054092023194
 30
0.0
 10
148.1719411655769
 20
246.1926179984031
 30
0.0
 10
147.4162433136311
 20
246.699302808382
 30
0.0
 10
147.0072841281721
 20
246.9189073904254
 30
0.0
 10
146.1654448918459
 20
247.269402480996
 30
0.0
 10
145.7287592957524
 20
247.4034598863538
 30
0.0
 10
145.0485369640842
 20
247.5401882328999
 30
0.0
 10
144.8173841378382
 20
247.5747895556053
 30
0.0
 10
144.3579589042353
 20
247.6204198996485
 30
0.0
 10
143.8985642416736
 20
247.6431535720785
 30
0.0
 10
143.439229925829
 20
247.6207805874165
 30
0.0
 10
142.9799261508338
 20
247.5755342501269
 30
0.0
 10
142.7489248679165
 20
247.5411613808607
 30
0.0
 10
142.067893556003
 20
247.4048412175716
 30
0.0
 10
141.6300908278495
 20
247.2708362792423
 30
0.0
 10
140.7851566410866
 20
246.9194093675501
 30
0.0
 10
140.376221016831
 20
246.6997298934778
 30
0.0
 10
139.6212672649266
 20
246.1937649293305
 30
0.0
 10
139.2707882749858
 20
245.9061782519465
 30
0.0
 10
138.6236894984281
 20
245.2593814133281
 30
0.0
 10
138.3340109638552
 20
244.9064221608185
 30
0.0
 10
137.9552937251174
 20
244.3415147622672
 30
0.0
 10
137.838001121785
 20
244.1468326706866
 30
0.0
 10
137.6216596604605
 20
243.7442699330051
 30
0.0
 10
137.5221177400273
 20
243.535109196436
 30
0.0
 10
137.2566928283271
 20
242.8976558846414
 30
0.0
 10
137.1232770085751
 20
242.4602770043516
 30
0.0
 10
136.9425534828021
 20
241.5605669621655
 30
0.0
 10
136.8957992263171
 20
241.0926850243861
 30
0.0
 10
136.8958631440919
 20
240.1700999337557
 30
0.0
 10
136.9410490418751
 20
239.7128139699517
 30
0.0
 10
137.0769832786981
 20
239.0328991851369
 30
0.0
 10
137.1340773477096
 20
238.8065708761216
 30
0.0
 10
137.2687038989349
 20
238.3659906529619
 30
0.0
 10
137.3463998643369
 20
238.1505271237833
 30
0.0
 10
137.5220536795935
 20
237.7289288845668
 30
0.0
 10
137.620012286807
 20
237.5227947216138
 30
0.0
 10
137.836323219096
 20
237.1198037803514
 30
0.0
 10
137.9553899648606
 20
236.9219482746228
 30
0.0
 10
138.3380611979341
 20
236.3515903552102
 30
0.0
 10
138.6262869941092
 20
236.001781378998
 30
0.0
 10
139.2681262443067
 20
235.3602332500797
 30
0.0
 10
139.6254524676605
 20
235.0667812364755
 30
0.0
 10
140.3806741021732
 20
234.5614490535814
 30
0.0
 10
140.7806379242424
 20
234.3464892122041
 30
0.0
 10
141.4159827075737
 20
234.0818404118867
 30
0.0
 10
141.6348803772835
 20
234.0030673873366
 30
0.0
 10
142.0754033212095
 20
233.8688112976819
 30
0.0
 10
142.2978220869487
 20
233.8128736038474
 30
0.0
 10
142.9715034763254
 20
233.6780724398354
 30
0.0
 10
143.4293569063264
 20
233.6318774472615
 30
0.0
 10
143.8958311684049
 20
233.6318774472615
 30
0.0
  0
LINE
  5
BF
330
1F
100
AcDbEntity
  8
0
  6
Continuous
 62
     7
370
    25
100
AcDbLine
 10
173.8958311684
 20
257.952385523
 30
0.0
 11
113.8958311684
 21
257.952385523
 31
0.0
  0
LINE
  5
C0
330
1F
100
AcDbEntity
  8
0
  6
Continuous
 62
     7
370
    25
100
AcDbLine
 10
113.8958311684
 20
223.3113693716
 30
0.0
 11
173.8958311684
 21
223.3113693716
 31
0.0
  0
LINE
  5
C1
330
1F
100
AcDbEntity
  8
0
  6
Continuous
 62
     7
370
    25
100
AcDbLine
 10
203.8958311684
 20
281.08772157
 30
0.0
 11
83.8958311684
 21
281.08772157
 31
0.0
  0
LINE
  5
C2
330
1F
100
AcDbEntity
  8
0
  6
Continuous
 62
     7
370
    25
100
AcDbLine
 10
83.8958311684
 20
281.08772157
 30
0.0
 11
83.8958311684
 21
266.08772157
 31
0.0
  0
LINE
  5
C3
330
1F
100
AcDbEntity
  8
0
  6
Continuous
 62
     7
370
    25
100
AcDbLine
 10
203.8958311684
 20
281.08772157
 30
0.0
 11
203.8958311684
 21
266.08772157
 31
0.0
  0
INSERT
  5
CF
330
1F
100
AcDbEntity
  8
FORMAT
100
AcDbBlockReference
  2
SW_CENTERMARKSYMBOL_0
 10
143.8958311684
 20
240.6318774473
 30
0.0
  0
LINE
  5
D0
330
1F
100
AcDbEntity
  8
0
  6
Continuous
 62
     7
370
    25
100
AcDbLine
 10
-2.1594475139
 20
113.5332651767
 30
0.0
 11
-2.1594475139
 21
129.4564555559
 31
0.0
  0
LINE
  5
D1
330
1F
100
AcDbEntity
  8
0
  6
Continuous
 62
     7
370
    25
100
AcDbLine
 10
-16.1594475139
 20
129.4564555559
 30
0.0
 11
-16.1594475139
 21
113.5372516939
 31
0.0
  0
LINE
  5
D2
330
1F
100
AcDbEntity
  8
0
  6
Continuous
 62
     7
370
    25
100
AcDbLine
 10
-19.1594475139
 20
163.4564555559
 30
0.0
 11
-19.1594475139
 21
112.5363279639
 31
0.0
  0
LINE
  5
D3
330
1F
100
AcDbEntity
  8
0
  6
Continuous
 62
     7
370
    25
100
AcDbLine
 10
0.8405524861
 20
112.5390350421
 30
0.0
 11
0.8405524861
 21
163.4564555559
 31
0.0
  0
LINE
  5
D4
330
1F
100
AcDbEntity
  8
0
  6
Continuous
 62
     7
370
    25
100
AcDbLine
 10
-49.6152916366
 20
78.4564555559
 30
0.0
 11
-34.6152916366
 21
78.4564555559
 31
0.0
  0
LINE
  5
D5
330
1F
100
AcDbEntity
  8
0
  6
Continuous
 62
     7
370
    25
100
AcDbLine
 10
-49.6152916366
 20
85.4564555559
 30
0.0
 11
-49.6152916366
 21
78.4564555559
 31
0.0
  0
LINE
  5
D6
330
1F
100
AcDbEntity
  8
0
  6
Continuous
 62
     7
370
    25
100
AcDbLine
 10
-29.059196256
 20
85.4564555559
 30
0.0
 11
-49.6152916366
 21
85.4564555559
 31
0.0
  0
ARC
  5
D7
330
1F
100
AcDbEntity
  8
0
  6
Continuous
 62
     7
370
    25
100
AcDbCircle
 10
-9.1594475139
 20
87.4564555559
 30
0.0
 40
20.00000000000001
100
AcDbArc
 50
185.7391704773
 51
174.2608295227
  0
LINE
  5
D8
330
1F
100
AcDbEntity
  8
0
  6
Continuous
 62
     7
370
    25
100
AcDbLine
 10
-49.6152916366
 20
89.4564555559
 30
0.0
 11
-29.059196256
 21
89.4564555559
 31
0.0
  0
LINE
  5
D9
330
1F
100
AcDbEntity
  8
0
  6
Continuous
 62
     7
370
    25
100
AcDbLine
 10
-49.6152916366
 20
96.4564555559
 30
0.0
 11
-49.6152916366
 21
89.4564555559
 31
0.0
  0
LINE
  5
DA
330
1F
100
AcDbEntity
  8
0
  6
Continuous
 62
     7
370
    25
100
AcDbLine
 10
-34.6152916366
 20
96.4564555559
 30
0.0
 11
-49.6152916366
 21
96.4564555559
 31
0.0
  0
ARC
  5
DB
330
1F
100
AcDbEntity
  8
0
  6
Continuous
 62
     7
370
    25
100
AcDbCircle
 10
-9.1594475139
 20
87.4564555559
 30
0.0
 40
27.00000000000001
100
AcDbArc
 50
199.4712206345
 51
160.5287793655
  0
LINE
  5
DC
330
1F
100
AcDbEntity
  8
0
  6
Continuous
 62
     7
370
    25
100
AcDbLine
 10
-16.1594475139
 20
129.4564555559
 30
0.0
 11
-2.1594475139
 21
129.4564555559
 31
0.0
  0
LINE
  5
DD
330
1F
100
AcDbEntity
  8
0
  6
Continuous
 62
     7
370
    25
100
AcDbLine
 10
-19.1594475139
 20
163.4564555559
 30
0.0
 11
0.8405524861
 21
163.4564555559
 31
0.0
  0
LINE
  5
DE
330
1F
100
AcDbEntity
  8
0
  6
Continuous
 62
     7
370
    25
100
AcDbLine
 10
203.8958311684
 20
-25.5772143086
 30
0.0
 11
83.8958311684
 21
-25.5772143086
 31
0.0
  0
CIRCLE
  5
DF
330
1F
100
AcDbEntity
  8
0
  6
Continuous
 62
     7
370
    25
100
AcDbCircle
 10
143.8958311684
 20
-52.5772143086
 30
0.0
 40
7.000000000000007
  0
CIRCLE
  5
E0
330
1F
100
AcDbEntity
  8
0
  6
Continuous
 62
     7
370
    25
100
AcDbCircle
 10
143.8958311684
 20
-52.5772143086
 30
0.0
 40
10.00000000000001
  0
CIRCLE
  5
E1
330
1F
100
AcDbEntity
  8
0
  6
Continuous
 62
     7
370
    25
100
AcDbCircle
 10
93.8958311684
 20
-52.5772143086
 30
0.0
 40
4.600000000000009
  0
CIRCLE
  5
E2
330
1F
100
AcDbEntity
  8
0
  6
Continuous
 62
     7
370
    25
100
AcDbCircle
 10
93.8958311684
 20
-52.5772143086
 30
0.0
 40
7.000000000000007
  0
CIRCLE
  5
E3
330
1F
100
AcDbEntity
  8
0
  6
Continuous
 62
     7
370
    25
100
AcDbCircle
 10
193.8958311684
 20
-52.5772143086
 30
0.0
 40
4.600000000000009
  0
CIRCLE
  5
E4
330
1F
100
AcDbEntity
  8
0
  6
Continuous
 62
     7
370
    25
100
AcDbCircle
 10
193.8958311684
 20
-52.5772143086
 30
0.0
 40
7.000000000000007
  0
CIRCLE
  5
E5
330
1F
100
AcDbEntity
  8
0
  6
Continuous
 62
     7
370
    25
100
AcDbCircle
 10
93.8958311684
 20
-52.5772143086
 30
0.0
 40
1.5
  0
CIRCLE
  5
E6
330
1F
100
AcDbEntity
  8
0
  6
Continuous
 62
     7
370
    25
100
AcDbCircle
 10
93.8958311684
 20
-52.5772143086
 30
0.0
 40
2.000000000000014
  0
CIRCLE
  5
E7
330
1F
100
AcDbEntity
  8
0
  6
Continuous
 62
     7
370
    25
100
AcDbCircle
 10
193.8958311684
 20
-52.5772143086
 30
0.0
 40
1.5
  0
CIRCLE
  5
E8
330
1F
100
AcDbEntity
  8
0
  6
Continuous
 62
     7
370
    25
100
AcDbCircle
 10
193.8958311684
 20
-52.5772143086
 30
0.0
 40
2.000000000000014
  0
LINE
  5
E9
330
1F
100
AcDbEntity
  8
0
  6
Continuous
 62
     7
370
    25
100
AcDbLine
 10
203.8958311684
 20
-25.5772143086
 30
0.0
 11
203.8958311684
 21
-78.0330584313
 31
0.0
  0
LINE
  5
EA
330
1F
100
AcDbEntity
  8
0
  6
Continuous
 62
     7
370
    25
100
AcDbLine
 10
203.8958311684
 20
-78.0330584313
 30
0.0
 11
83.8958311684
 21
-78.0330584313
 31
0.0
  0
LINE
  5
EB
330
1F
100
AcDbEntity
  8
0
  6
Continuous
 62
     7
370
    25
100
AcDbLine
 10
83.8958311684
 20
-25.5772143086
 30
0.0
 11
83.8958311684
 21
-78.0330584313
 31
0.0
  0
LINE
  5
EC
330
1F
100
AcDbEntity
  8
0
  6
Continuous
 62
     7
370
    25
100
AcDbLine
 10
203.8958311684
 20
-93.0330584313
 30
0.0
 11
83.8958311684
 21
-93.0330584313
 31
0.0
  0
LINE
  5
ED
330
1F
100
AcDbEntity
  8
0
  6
Continuous
 62
     7
370
    25
100
AcDbLine
 10
83.8958311684
 20
-78.0330584313
 30
0.0
 11
83.8958311684
 21
-93.0330584313
 31
0.0
  0
LINE
  5
EE
330
1F
100
AcDbEntity
  8
0
  6
Continuous
 62
     7
370
    25
100
AcDbLine
 10
203.8958311684
 20
-78.0330584313
 30
0.0
 11
203.8958311684
 21
-93.0330584313
 31
0.0
  0
INSERT
  5
FA
330
1F
100
AcDbEntity
  8
FORMAT
100
AcDbBlockReference
  2
SW_CENTERMARKSYMBOL_1
 10
143.8958311684
 20
-52.5772143086
 30
0.0
  0
INSERT
  5
106
330
1F
100
AcDbEntity
  8
FORMAT
100
AcDbBlockReference
  2
SW_CENTERMARKSYMBOL_2
 10
93.8958311684
 20
-52.5772143086
 30
0.0
  0
INSERT
  5
112
330
1F
100
AcDbEntity
  8
FORMAT
100
AcDbBlockReference
  2
SW_CENTERMARKSYMBOL_3
 10
193.8958311684
 20
-52.5772143086
 30
0.0
  0
LINE
  5
113
330
1F
100
AcDbEntity
  8
0
  6
Continuous
 62
     7
370
    25
100
AcDbLine
 10
365.7600160887
 20
-65.2227349876
 30
0.0
 11
386.9732195243
 21
-52.9766133103
 31
0.0
  0
LINE
  5
114
330
1F
100
AcDbEntity
  8
0
  6
Continuous
 62
     7
370
    25
100
AcDbLine
 10
302.120405782
 20
-101.9611000196
 30
0.0
 11
323.3336092175
 21
-89.7149783423
 31
0.0
  0
LINE
  5
115
330
1F
100
AcDbEntity
  8
0
  6
Continuous
 62
     7
370
    25
100
AcDbLine
 10
359.9754137432
 20
-6.2099747417
 30
0.0
 11
352.837117674
 21
-10.3308253477
 31
0.0
  0
LINE
  5
116
330
1F
100
AcDbEntity
  8
0
  6
Continuous
 62
     7
370
    25
100
AcDbLine
 10
373.4032488219
 20
-7.5058182736
 30
0.0
 11
373.4032488219
 21
0.6193795141
 31
0.0
  0
LINE
  5
117
330
1F
100
AcDbEntity
  8
0
  6
Continuous
 62
     7
370
    25
100
AcDbLine
 10
359.4032488219
 20
0.6193795141
 30
0.0
 11
359.4032488219
 21
-6.54027852
 31
0.0
  0
LINE
  5
118
330
1F
100
AcDbEntity
  8
0
  6
Continuous
 62
     7
370
    25
100
AcDbLine
 10
321.0479097626
 20
7.9715643227
 30
0.0
 11
321.0479097626
 21
-19.4810678821
 31
0.0
  0
LINE
  5
119
330
1F
100
AcDbEntity
  8
0
  6
Continuous
 62
     7
370
    25
100
AcDbLine
 10
341.0479097626
 20
-7.9353136404
 30
0.0
 11
341.0479097626
 21
7.9715643227
 31
0.0
  0
LINE
  5
11A
330
1F
100
AcDbEntity
  8
0
  6
Continuous
 62
     7
370
    25
100
AcDbLine
 10
344.867714916
 20
-20.4279216767
 30
0.0
 11
355.4743166338
 21
-26.5509825154
 31
0.0
  0
LINE
  5
11B
330
1F
100
AcDbEntity
  8
0
  6
Continuous
 62
     7
370
    25
100
AcDbLine
 10
344.867714916
 20
-14.7121359935
 30
0.0
 11
344.867714916
 21
-20.4279216767
 31
0.0
  0
LINE
  5
11C
330
1F
100
AcDbEntity
  8
0
  6
Continuous
 62
     7
370
    25
100
AcDbLine
 10
359.4030693543
 20
-23.1032175016
 30
0.0
 11
344.867714916
 21
-14.7121359935
 31
0.0
  0
LWPOLYLINE
  5
11D
330
1F
100
AcDbEntity
  8
0
  6
Continuous
 62
     7
370
    25
100
AcDbPolyline
 90
       80
 70
   128
 43
0.0
 10
359.4030693543
 20
-19.837054254
 10
359.5535451132
 20
-18.6788576767
 10
359.7865123008
 20
-17.5853376474
 10
360.100590405
 20
-16.5629741252
 10
360.4939182679
 20
-15.6178254115
 10
360.9641651153
 20
-14.7554922496
 10
361.5085443676
 20
-13.9810846359
 10
362.1238301534
 20
-13.2991915396
 10
362.8063764244
 20
-12.7138537092
 10
363.5521385617
 20
-12.2285397278
 10
364.3566973428
 20
-11.8461254592
 10
365.2152851295
 20
-11.5688770064
 10
366.1228141195
 20
-11.3984372825
 10
367.0739064958
 20
-11.335816276
 10
368.0629262941
 20
-11.3813850651
 10
369.0840128008
 20
-11.5348736192
 10
370.1311152819
 20
-11.7953723989
 10
371.1980288386
 20
-12.1613377457
 10
372.2784311758
 20
-12.6306010296
 10
373.3659200672
 20
-13.2003814996
 10
374.4540512927
 20
-13.8673027619
 10
375.5363768262
 20
-14.627412788
 10
376.6064830448
 20
-15.4762073332
 10
377.6580287344
 20
-16.4086566276
 10
378.6847826668
 20
-17.4192351819
 10
379.680660524
 20
-18.5019545301
 10
380.639760953
 20
-19.6503987155
 10
381.5564005358
 20
-20.8577623106
 10
382.4251474677
 20
-22.1168907444
 10
383.2408537458
 20
-23.4203226989
 10
383.9986856741
 20
-24.7603343231
 10
384.6941525073
 20
-26.128985003
 10
385.323133062
 20
-27.5181644159
 10
385.8819001378
 20
-28.9196405902
 10
386.3671426042
 20
-30.3251086866
 10
386.7759850208
 20
-31.7262402103
 10
387.1060046776
 20
-33.1147323642
 10
387.3552459507
 20
-34.4823572495
 10
387.5222318911
 20
-35.8210106219
 10
387.605972977
 20
-37.1227599162
 10
387.605972977
 20
-38.3798912525
 10
387.5222318911
 20
-39.584955147
 10
387.3552459507
 20
-40.7308106564
 10
387.1060046776
 20
-41.8106676931
 10
386.7759850208
 20
-42.8181272618
 10
386.3671426042
 20
-43.7472193789
 10
385.8819001378
 20
-44.5924384489
 10
385.323133062
 20
-45.3487758896
 10
384.6941525073
 20
-46.0117498117
 10
383.9986856741
 20
-46.5774315777
 10
383.2408537458
 20
-47.0424690819
 10
382.4251474677
 20
-47.4041066144
 10
381.5564005358
 20
-47.6602011907
 10
380.639760953
 20
-47.8092352508
 10
379.680660524
 20
-47.8503256515
 10
378.6847826668
 20
-47.7832289003
 10
377.6580287344
 20
-47.6083425977
 10
376.6064830448
 20
-47.3267030814
 10
375.5363768262
 20
-46.9399792853
 10
374.4540512927
 20
-46.4504628494
 10
373.3659200672
 20
-45.8610545405
 10
372.2784311758
 20
-45.1752470625
 10
371.1980288386
 20
-44.3971043596
 10
370.1311152819
 20
-43.5312375342
 10
369.0840128008
 20
-42.5827775225
 10
368.0629262941
 20
-41.5573446901
 10
367.0739064958
 20
-40.461015526
 10
366.1228141195
 20
-39.3002866357
 10
365.2152851295
 20
-38.0820362433
 10
364.3566973428
 20
-36.8134834324
 10
363.5521385617
 20
-35.5021453679
 10
362.8063764244
 20
-34.1557927506
 10
362.1238301534
 20
-32.7824037698
 10
361.5085443676
 20
-31.3901168264
 10
360.9641651153
 20
-29.9871823065
 10
360.4939182679
 20
-28.5819136913
 10
360.100590405
 20
-27.1826382934
 10
359.7865123008
 20
-25.7976479109
 10
359.5535451132
 20
-24.4351496921
 10
359.4030693543
 20
-23.1032175016
  0
LINE
  5
11E
330
1F
100
AcDbEntity
  8
0
  6
Continuous
 62
     7
370
    25
100
AcDbLine
 10
344.867714916
 20
-11.445972746
 30
0.0
 11
359.4030693543
 21
-19.837054254
 31
0.0
  0
LINE
  5
11F
330
1F
100
AcDbEntity
  8
0
  6
Continuous
 62
     7
370
    25
100
AcDbLine
 10
344.867714916
 20
-5.7301870628
 30
0.0
 11
344.867714916
 21
-11.445972746
 31
0.0
  0
LINE
  5
120
330
1F
100
AcDbEntity
  8
0
  6
Continuous
 62
     7
370
    25
100
AcDbLine
 10
355.4743166338
 20
-11.8532479015
 30
0.0
 11
344.867714916
 21
-5.7301870628
 31
0.0
  0
LWPOLYLINE
  5
121
330
1F
100
AcDbEntity
  8
0
  6
Continuous
 62
     7
370
    25
100
AcDbPolyline
 90
       85
 70
   128
 43
0.0
 10
355.4743166338
 20
-26.5509825154
 10
355.9385672767
 20
-28.1881999306
 10
356.4808234211
 20
-29.8316677243
 10
357.098672911
 20
-31.4740751435
 10
357.7893673233
 20
-33.1081161524
 10
358.5498341935
 20
-34.726521932
 10
359.3766906838
 20
-36.3220932146
 10
360.2662586305
 20
-37.8877323086
 10
361.2145809063
 20
-39.4164746723
 10
362.2174390227
 20
-40.9015198937
 10
363.2703718958
 20
-42.3362619425
 10
364.3686956906
 20
-43.714318555
 10
365.5075246565
 20
-45.0295596255
 10
366.6817928609
 20
-46.2761344751
 10
367.8862767243
 20
-47.4484978778
 10
369.1156182567
 20
-48.5414347271
 10
370.3643488923
 20
-49.5500832358
 10
371.6269138152
 20
-50.4699565619
 10
372.8976966693
 20
-51.2969627686
 10
374.1710445423
 20
-52.0274230263
 10
375.4412931119
 20
-52.6580879775
 10
376.7027918422
 20
-53.1861521911
 10
377.9499291203
 20
-53.6092666421
 10
379.177157218
 20
-53.9255491609
 10
380.3790169708
 20
-54.1335928058
 10
381.5501620617
 20
-54.2324721218
 10
382.685382804
 20
-54.2217472569
 10
383.7796293159
 20
-54.1014659195
 10
384.8280339839
 20
-53.8721631653
 10
385.8259331162
 20
-53.5348590179
 10
386.7688876883
 20
-53.0910539309
 10
387.6527030893
 20
-52.5427221136
 10
388.4734477812
 20
-51.8923027488
 10
389.2274707881
 20
-51.1426891424
 10
389.9114179365
 20
-50.2972158532
 10
390.5222467766
 20
-49.3596438592
 10
391.0572401155
 20
-48.3341438274
 10
391.5140181051
 20
-47.2252775616
 10
391.8905488277
 20
-46.037977709
 10
392.1851573355
 20
-44.7775258189
 10
392.3965331007
 20
-43.4495288475
 10
392.5237358458
 20
-42.0598942167
 10
392.5661997258
 20
-40.6148035356
 10
392.5237358458
 20
-39.1206851022
 10
392.3965331007
 20
-37.5841853081
 10
392.1851573355
 20
-36.0121390729
 10
391.8905488277
 20
-34.4115394399
 10
391.5140181051
 20
-32.7895064686
 10
391.0572401155
 20
-31.1532555617
 10
390.5222467766
 20
-29.5100653687
 10
389.9114179365
 20
-27.8672454075
 10
389.2274707881
 20
-26.2321035493
 10
388.4734477812
 20
-24.61191351
 10
387.6527030893
 20
-23.0138824943
 10
386.7688876883
 20
-21.4451191355
 10
385.8259331162
 20
-19.9126018735
 10
384.8280339839
 20
-18.4231479121
 10
383.7796293159
 20
-16.9833828937
 10
382.685382804
 20
-15.5997114256
 10
381.5501620617
 20
-14.2782885907
 10
380.3790169708
 20
-13.0249925665
 10
379.177157218
 20
-11.8453984776
 10
377.9499291203
 20
-10.7447535949
 10
376.7027918422
 20
-9.7279539941
 10
375.4412931119
 20
-8.799522776
 10
374.1710445423
 20
-7.9635899462
 10
372.8976966693
 20
-7.2238740432
 10
371.6269138152
 20
-6.5836655971
 10
370.3643488923
 20
-6.045812492
 10
369.1156182567
 20
-5.6127072973
 10
367.8862767243
 20
-5.2862766254
 10
366.6817928609
 20
-5.0679725606
 10
365.5075246565
 20
-4.9587662001
 10
364.3686956906
 20
-4.9591433343
 10
363.2703718958
 20
-5.0691022855
 10
362.2174390227
 20
-5.2881539156
 10
361.2145809063
 20
-5.6153238019
 10
360.2662586305
 20
-6.0491565718
 10
359.3766906838
 20
-6.5877223765
 10
358.5498341935
 20
-7.228625476
 10
357.7893673233
 20
-7.9690148963
 10
357.098672911
 20
-8.8055971112
 10
356.4808234211
 20
-9.7346506936
 10
355.9385672767
 20
-10.7520428693
 10
355.4743166338
 20
-11.8532479015
  0
LINE
  5
122
330
1F
100
AcDbEntity
  8
0
  6
Continuous
 62
     7
370
    25
100
AcDbLine
 10
355.4743166338
 20
-26.5509825154
 30
0.0
 11
270.6215028914
 21
-75.5354692248
 31
0.0
  0
LWPOLYLINE
  5
123
330
1F
100
AcDbEntity
  8
0
  6
Continuous
 62
     7
370
    25
100
AcDbPolyline
 90
       32
 70
   128
 43
0.0
 10
270.6215028914
 20
-75.5354692248
 10
271.0857535343
 20
-77.17268664
 10
271.6280096788
 20
-78.8161544336
 10
272.2458591687
 20
-80.4585618528
 10
272.9365535809
 20
-82.0926028618
 10
273.6970204512
 20
-83.7110086414
 10
274.5238769414
 20
-85.3065799239
 10
275.4134448882
 20
-86.872219018
 10
276.3617671639
 20
-88.4009613816
 10
277.3646252803
 20
-89.8860066031
 10
278.4175581534
 20
-91.3207486518
 10
279.5158819482
 20
-92.6988052643
 10
280.6547109141
 20
-94.0140463348
 10
281.8289791185
 20
-95.2606211845
 10
283.0334629819
 20
-96.4329845871
 10
284.2628045144
 20
-97.5259214365
 10
285.51153515
 20
-98.5345699451
 10
286.7741000728
 20
-99.4544432713
 10
288.0448829269
 20
-100.281449478
 10
289.3182307999
 20
-101.0119097357
 10
290.5884793695
 20
-101.6425746869
 10
291.8499780998
 20
-102.1706389005
 10
293.0971153779
 20
-102.5937533515
 10
294.3243434757
 20
-102.9100358703
 10
295.5262032284
 20
-103.1180795152
 10
296.6973483193
 20
-103.2169588311
 10
297.8325690616
 20
-103.2062339663
 10
298.9268155735
 20
-103.0859526288
 10
299.9752202415
 20
-102.8566498746
 10
300.9731193739
 20
-102.5193457272
 10
301.9160739459
 20
-102.0755406403
 10
302.120405782
 20
-101.9611000196
  0
LINE
  5
124
330
1F
100
AcDbEntity
  8
0
  6
Continuous
 62
     7
370
    25
100
AcDbLine
 10
292.100558476
 20
-64.2593615382
 30
0.0
 11
334.5269653472
 21
-39.7671181835
 31
0.0
  0
LWPOLYLINE
  5
125
330
1F
100
AcDbEntity
  8
0
  6
Continuous
 62
     7
370
    25
100
AcDbPolyline
 90
       37
 70
   128
 43
0.0
 10
327.5688541779
 20
-84.7347728155
 10
327.062342726
 20
-85.7789532344
 10
326.4803865246
 20
-86.7379683873
 10
325.8255341265
 20
-87.6076184725
 10
325.1006533178
 20
-88.3840950433
 10
324.3089185589
 20
-89.0639976868
 10
323.4537970829
 20
-89.6443489146
 10
322.5390337115
 20
-90.1226072027
 10
321.5686344551
 20
-90.4966781211
 10
320.5468489698
 20
-90.7649235063
 10
319.4781519466
 20
-90.9261686351
 10
318.3672235156
 20
-90.9797073687
 10
317.2189287504
 20
-90.9253052459
 10
316.0382963621
 20
-90.763200509
 10
314.830496678
 20
-90.4941030611
 10
313.6008189983
 20
-90.1191913569
 10
312.3546484337
 20
-89.640107242
 10
311.0974423214
 20
-89.0589487629
 10
309.834706327
 20
-88.3782609789
 10
308.5719703325
 20
-87.6010248165
 10
307.3147642203
 20
-86.7306440153
 10
306.0685936556
 20
-85.7709302218
 10
304.838915976
 20
-84.7260862975
 10
303.6311162918
 20
-83.6006879128
 10
302.4504839036
 20
-82.3996635092
 10
301.3021891383
 20
-81.1282727164
 10
300.1912607073
 20
-79.7920833183
 10
299.1225636841
 20
-78.3969468707
 10
298.1007781989
 20
-76.9489730754
 10
297.1303789425
 20
-75.4545030239
 10
296.215615571
 20
-73.9200814282
 10
295.360494095
 20
-72.3524279595
 10
294.5687593361
 20
-70.758407821
 10
293.8438785274
 20
-69.145001683
 10
293.1890261293
 20
-67.5192751125
 10
292.607069928
 20
-65.8883476316
 10
292.100558476
 20
-64.2593615382
  0
LINE
  5
126
330
1F
100
AcDbEntity
  8
0
  6
Continuous
 62
     7
370
    25
100
AcDbLine
 10
359.3292986189
 20
-66.3998585094
 30
0.0
 11
327.5688541779
 21
-84.7347728155
 31
0.0
  0
LWPOLYLINE
  5
127
330
1F
100
AcDbEntity
  8
0
  6
Continuous
 62
     7
370
    25
100
AcDbPolyline
 90
       31
 70
   128
 43
0.0
 10
334.5269653472
 20
-39.7671181835
 10
335.0334767991
 20
-41.3961042769
 10
335.6154330005
 20
-43.0270317578
 10
336.2702853986
 20
-44.6527583283
 10
336.9951662073
 20
-46.2661644663
 10
337.7869009662
 20
-47.8601846048
 10
338.6420224422
 20
-49.4278380735
 10
339.5567858137
 20
-50.9622596692
 10
340.5271850701
 20
-52.4567297207
 10
341.5489705553
 20
-53.9047035161
 10
342.6176675785
 20
-55.2998399636
 10
343.7285960095
 20
-56.6360293617
 10
344.8768907748
 20
-57.9074201545
 10
346.057523163
 20
-59.1084445581
 10
347.2653228472
 20
-60.2338429428
 10
348.4950005268
 20
-61.2786868672
 10
349.7411710914
 20
-62.2384006606
 10
350.9983772037
 20
-63.1087814618
 10
352.2611131982
 20
-63.8860176242
 10
353.5238491926
 20
-64.5667054083
 10
354.7810553049
 20
-65.1478638873
 10
356.0272258695
 20
-65.6269480022
 10
357.2569035492
 20
-66.0018597064
 10
358.4647032333
 20
-66.2709571543
 10
359.6453356216
 20
-66.4330618912
 10
360.7936303868
 20
-66.487464014
 10
361.9045588178
 20
-66.4339252804
 10
362.973255841
 20
-66.2726801517
 10
363.9950413263
 20
-66.0044347664
 10
364.9654405826
 20
-65.630363848
 10
365.7600160887
 20
-65.2227349876
  0
LINE
  5
128
330
1F
100
AcDbEntity
  8
0
  6
Continuous
 62
     7
370
    25
100
AcDbLine
 10
344.867714916
 20
-20.4279216767
 30
0.0
 11
260.0149011736
 21
-69.4124083861
 31
0.0
  0
LINE
  5
129
330
1F
100
AcDbEntity
  8
0
  6
Continuous
 62
     7
370
    25
100
AcDbLine
 10
260.0149011736
 20
-69.4124083861
 30
0.0
 11
270.6215028914
 21
-75.5354692248
 31
0.0
  0
LINE
  5
12A
330
1F
100
AcDbEntity
  8
0
  6
Continuous
 62
     7
370
    25
100
AcDbLine
 10
344.867714916
 20
-14.7121359935
 30
0.0
 11
260.0149011736
 21
-63.6966227029
 31
0.0
  0
LINE
  5
12B
330
1F
100
AcDbEntity
  8
0
  6
Continuous
 62
     7
370
    25
100
AcDbLine
 10
260.0149011736
 20
-63.6966227029
 30
0.0
 11
260.0149011736
 21
-69.4124083861
 31
0.0
  0
LINE
  5
12C
330
1F
100
AcDbEntity
  8
0
  6
Continuous
 62
     7
370
    25
100
AcDbLine
 10
359.4030693543
 20
-19.837054254
 30
0.0
 11
356.5741824932
 21
-21.4701358778
 31
0.0
  0
LINE
  5
12D
330
1F
100
AcDbEntity
  8
0
  6
Continuous
 62
     7
370
    25
100
AcDbLine
 10
336.4231117571
 20
-45.0073041442
 30
0.0
 11
297.587257613
 21
-67.4267655299
 31
0.0
  0
LINE
  5
12E
330
1F
100
AcDbEntity
  8
0
  6
Continuous
 62
     7
370
    25
100
AcDbLine
 10
322.0821550409
 20
-81.5673688238
 30
0.0
 11
352.4871308625
 21
-64.0149498957
 31
0.0
  0
LWPOLYLINE
  5
12F
330
1F
100
AcDbEntity
  8
0
  6
Continuous
 62
     7
370
    25
100
AcDbPolyline
 90
       28
 70
   128
 43
0.0
 10
297.587257613
 20
-67.4267655299
 10
298.1720405733
 20
-68.8357673746
 10
298.8269641778
 20
-70.2297092173
 10
299.5480896387
 20
-71.6002077276
 10
300.3310800228
 20
-72.9390205664
 10
301.1712263337
 20
-74.2380959555
 10
302.0634758326
 20
-75.4896211029
 10
303.0024624262
 20
-76.6860691889
 10
303.9825389385
 20
-77.8202446341
 10
304.997811074
 20
-78.8853263738
 10
306.0421728667
 20
-79.8749088812
 10
307.1093434019
 20
-80.7830406905
 10
308.1929045904
 20
-81.6042601904
 10
309.2863397678
 20
-82.3336284699
 10
310.3830728861
 20
-82.9667590226
 10
311.4765080635
 20
-83.4998441267
 10
312.560069252
 20
-83.9296777457
 10
313.6272397872
 20
-84.2536748097
 10
314.6716015799
 20
-84.4698867622
 10
315.6868737155
 20
-84.577013279
 10
316.6669502277
 20
-84.5744100887
 10
317.6059368213
 20
-84.4620928472
 10
318.4981863203
 20
-84.2407370436
 10
319.3383326312
 20
-83.9116739377
 10
320.1213230152
 20
-83.4768825538
 10
320.8424484761
 20
-82.9389777784
 10
321.4973720806
 20
-82.3011946341
 10
322.0821550409
 20
-81.5673688238
  0
LINE
  5
130
330
1F
100
AcDbEntity
  8
0
  6
Continuous
 62
     7
370
    25
100
AcDbLine
 10
344.867714916
 20
-11.445972746
 30
0.0
 11
260.0149011736
 21
-60.4304594554
 31
0.0
  0
LINE
  5
131
330
1F
100
AcDbEntity
  8
0
  6
Continuous
 62
     7
370
    25
100
AcDbLine
 10
260.0149011736
 20
-60.4304594554
 30
0.0
 11
262.8437880346
 21
-62.0635410791
 31
0.0
  0
LINE
  5
132
330
1F
100
AcDbEntity
  8
0
  6
Continuous
 62
     7
370
    25
100
AcDbLine
 10
344.867714916
 20
-5.7301870628
 30
0.0
 11
260.0149011736
 21
-54.7146737722
 31
0.0
  0
LINE
  5
133
330
1F
100
AcDbEntity
  8
0
  6
Continuous
 62
     7
370
    25
100
AcDbLine
 10
260.0149011736
 20
-54.7146737722
 30
0.0
 11
260.0149011736
 21
-60.4304594554
 31
0.0
  0
LINE
  5
134
330
1F
100
AcDbEntity
  8
0
  6
Continuous
 62
     7
370
    25
100
AcDbLine
 10
297.587257613
 20
-67.4267655299
 30
0.0
 11
292.100558476
 21
-64.2593615382
 31
0.0
  0
LWPOLYLINE
  5
135
330
1F
100
AcDbEntity
  8
0
  6
Continuous
 62
     7
370
    25
100
AcDbPolyline
 90
       25
 70
   128
 43
0.0
 10
359.4032488219
 20
0.6193795141
 10
359.4631347923
 20
1.1468376822
 10
359.6417680379
 20
1.6652708949
 10
359.9360920943
 20
2.165808616
 10
360.3410709954
 20
2.6398865064
 10
360.8497754398
 20
3.079392962
 10
361.4535013536
 20
3.4768079055
 10
362.1419188188
 20
3.825331457
 10
362.9032488219
 20
4.1190002818
 10
363.7244647953
 20
4.3527896251
 10
364.5915155062
 20
4.5226992862
 10
365.4895654763
 20
4.6258220639
 10
366.4032488219
 20
4.6603934987
 10
367.3169321674
 20
4.6258220639
 10
368.2149821376
 20
4.5226992862
 10
369.0820328484
 20
4.3527896251
 10
369.9032488219
 20
4.1190002818
 10
370.6645788249
 20
3.825331457
 10
371.3529962902
 20
3.4768079055
 10
371.9567222039
 20
3.079392962
 10
372.4654266484
 20
2.6398865064
 10
372.8704055495
 20
2.165808616
 10
373.1647296059
 20
1.6652708949
 10
373.3433628515
 20
1.1468376822
 10
373.4032488219
 20
0.6193795141
  0
LINE
  5
136
330
1F
100
AcDbEntity
  8
0
  6
Continuous
 62
     7
370
    25
100
AcDbLine
 10
327.5688541779
 20
-84.7347728155
 30
0.0
 11
322.0821550409
 21
-81.5673688238
 31
0.0
  0
LWPOLYLINE
  5
137
330
1F
100
AcDbEntity
  8
0
  6
Continuous
 62
     7
370
    25
100
AcDbPolyline
 90
       23
 70
   128
 43
0.0
 10
323.9768419507
 20
12.0536048818
 10
324.7976341335
 20
12.4778876804
 10
325.6942961955
 20
12.8474698178
 10
326.6559438741
 20
13.1578650676
 10
327.670904069
 20
13.4053056519
 10
328.7268565385
 20
13.5867879772
 10
329.8109834499
 20
13.700109094
 10
330.9101249711
 20
13.7438934373
 10
332.0109390131
 20
13.7176095245
 10
333.1000631845
 20
13.6215764068
 10
334.1642769933
 20
13.4569597962
 10
335.1906623255
 20
13.2257579151
 10
336.1667602535
 20
12.9307772414
 10
337.0807222706
 20
12.5755984408
 10
337.9214541163
 20
12.1645329028
 10
338.6787504446
 20
11.7025704061
 10
339.343418704
 20
11.1953185498
 10
339.9073907223
 20
10.6489346841
 10
340.3638206431
 20
10.0700511692
 10
340.7071680254
 20
9.4656948666
 10
340.9332650973
 20
8.8432018432
 10
341.0393673464
 20
8.210128321
 10
341.0479097626
 20
7.9715643227
  0
ARC
  5
138
330
1F
100
AcDbEntity
  8
0
  6
Continuous
 62
     7
370
    25
100
AcDbCircle
 10
325.9589207402
 20
7.5396311611
 30
0.0
 40
4.929969074796716
100
AcDbArc
 50
113.7062026696
 51
174.9736563728
  0
ENDSEC
  0
SECTION
  2
OBJECTS
  0
DICTIONARY
  5
C
330
0
100
AcDbDictionary
281
     1
  3
ACAD_GROUP
350
D
  3
ACAD_LAYOUT
350
1A
  3
ACAD_MLINESTYLE
350
17
  3
ACAD_PLOTSETTINGS
350
19
  3
ACAD_PLOTSTYLENAME
350
E
  3
ACAD_SCALELIST
350
47
  3
DWGPROPS
350
139
  0
DICTIONARY
  5
D
102
{ACAD_REACTORS
330
C
102
}
330
C
100
AcDbDictionary
281
     1
  0
DICTIONARY
  5
1A
102
{ACAD_REACTORS
330
C
102
}
330
C
100
AcDbDictionary
281
     1
  3
Layout1
350
1E
  3
Layout2
350
26
  3
Model
350
22
  0
DICTIONARY
  5
17
102
{ACAD_REACTORS
330
C
102
}
330
C
100
AcDbDictionary
281
     1
  3
Standard
350
18
  0
DICTIONARY
  5
19
102
{ACAD_REACTORS
330
C
102
}
330
C
100
AcDbDictionary
281
     1
  0
ACDBDICTIONARYWDFLT
  5
E
102
{ACAD_REACTORS
330
C
102
}
330
C
100
AcDbDictionary
281
     1
  3
Normal
350
F
100
AcDbDictionaryWithDefault
340
F
  0
DICTIONARY
  5
47
102
{ACAD_REACTORS
330
C
102
}
330
C
100
AcDbDictionary
281
     1
  3
A0
350
48
  3
A1
350
49
  3
A2
350
4A
  3
A3
350
4B
  3
A4
350
4C
  3
A5
350
4D
  3
A6
350
4E
  3
A7
350
4F
  3
A8
350
50
  3
A9
350
51
  3
B0
350
52
  3
B1
350
53
  3
B2
350
54
  3
B3
350
55
  3
B4
350
56
  3
B5
350
57
  3
B6
350
58
  3
B7
350
59
  3
B8
350
5A
  3
B9
350
5B
  3
C0
350
5C
  3
C1
350
5D
  3
C2
350
5E
  3
C3
350
5F
  3
C4
350
60
  3
C5
350
61
  3
C6
350
62
  3
C7
350
63
  3
C8
350
64
  3
C9
350
65
  3
D0
350
66
  3
D1
350
67
  3
D2
350
68
  0
XRECORD
  5
139
102
{ACAD_REACTORS
330
C
102
}
330
C
100
AcDbXrecord
280
     1
  1
DWGPROPS COOKIE
  2

  3

  4

  6

  7

  8
b.kav
  9

300
=
301
=
302
=
303
=
304
=
305
=
306
=
307
=
308
=
309
=
 40
0.0
 41
2459867.23678316
 42
2459867.236783426
  1

 90
        0
  0
LAYOUT
  5
1E
102
{ACAD_REACTORS
330
1A
102
}
330
1A
100
AcDbPlotSettings
  1

  2
none_device
  4

  6

 40
0.0
 41
0.0
 42
0.0
 43
0.0
 44
0.0
 45
0.0
 46
0.0
 47
0.0
 48
0.0
 49
0.0
140
0.0
141
0.0
142
1.0
143
1.0
 70
   688
 72
     1
 73
     0
 74
     5
  7

 75
    16
147
1.0
148
0.0
149
0.0
100
AcDbLayout
  1
Layout1
 70
     1
 71
     1
 10
0.0
 20
0.0
 11
420.0
 21
297.0
 12
0.0
 22
0.0
 32
0.0
 14
1.0000000000E+20
 24
1.0000000000E+20
 34
1.0000000000E+20
 15
-1.0000000000E+20
 25
-1.0000000000E+20
 35
-1.0000000000E+20
146
0.0
 13
0.0
 23
0.0
 33
0.0
 16
1.0
 26
0.0
 36
0.0
 17
0.0
 27
1.0
 37
0.0
 76
     0
330
1B
  0
LAYOUT
  5
26
102
{ACAD_REACTORS
330
1A
102
}
330
1A
100
AcDbPlotSettings
  1

  2
none_device
  4

  6

 40
0.0
 41
0.0
 42
0.0
 43
0.0
 44
0.0
 45
0.0
 46
0.0
 47
0.0
 48
0.0
 49
0.0
140
0.0
141
0.0
142
1.0
143
1.0
 70
   688
 72
     1
 73
     0
 74
     5
  7

 75
    16
147
1.0
148
0.0
149
0.0
100
AcDbLayout
  1
Layout2
 70
     1
 71
     2
 10
0.0
 20
0.0
 11
0.0
 21
0.0
 12
0.0
 22
0.0
 32
0.0
 14
0.0
 24
0.0
 34
0.0
 15
0.0
 25
0.0
 35
0.0
146
0.0
 13
0.0
 23
0.0
 33
0.0
 16
1.0
 26
0.0
 36
0.0
 17
0.0
 27
1.0
 37
0.0
 76
     0
330
23
  0
LAYOUT
  5
22
102
{ACAD_REACTORS
330
1A
102
}
330
1A
100
AcDbPlotSettings
  1

  2
none_device
  4
Letter_(8.50_x_11.00_Inches)
  6

 40
6.35
 41
6.35
 42
6.35000508
 43
6.35000508
 44
215.9
 45
279.4
 46
0.0
 47
0.0
 48
0.0
 49
0.0
140
0.0
141
0.0
142
1.0
143
1.0
 70
  1712
 72
     1
 73
     0
 74
     0
  7

 75
     0
147
1.0
148
0.0
149
0.0
100
AcDbLayout
  1
Model
 70
     1
 71
     0
 10
0.0
 20
0.0
 11
279.4
 21
215.9
 12
0.0
 22
0.0
 32
0.0
 14
0.0
 24
0.0
 34
0.0
 15
279.4
 25
215.9
 35
0.0
146
0.0
 13
0.0
 23
0.0
 33
0.0
 16
1.0
 26
0.0
 36
0.0
 17
0.0
 27
1.0
 37
0.0
 76
     0
330
1F
331
29
  0
MLINESTYLE
  5
18
102
{ACAD_REACTORS
330
17
102
}
330
17
100
AcDbMlineStyle
  2
Standard
 70
     0
  3

 62
   256
 51
90.0
 52
90.0
 71
     2
 49
0.5
 62
   256
  6
BYLAYER
 49
-0.5
 62
   256
  6
BYLAYER
  0
ACDBPLACEHOLDER
  5
F
102
{ACAD_REACTORS
330
E
102
}
330
E
  0
SCALE
  5
48
102
{ACAD_REACTORS
330
47
102
}
330
47
100
AcDbScale
 70
     0
300
1:1
140
1.0
141
1.0
290
     1
  0
SCALE
  5
49
102
{ACAD_REACTORS
330
47
102
}
330
47
100
AcDbScale
 70
     0
300
1:2
140
1.0
141
2.0
290
     0
  0
SCALE
  5
4A
102
{ACAD_REACTORS
330
47
102
}
330
47
100
AcDbScale
 70
     0
300
1:4
140
1.0
141
4.0
290
     0
  0
SCALE
  5
4B
102
{ACAD_REACTORS
330
47
102
}
330
47
100
AcDbScale
 70
     0
300
1:5
140
1.0
141
5.0
290
     0
  0
SCALE
  5
4C
102
{ACAD_REACTORS
330
47
102
}
330
47
100
AcDbScale
 70
     0
300
1:8
140
1.0
141
8.0
290
     0
  0
SCALE
  5
4D
102
{ACAD_REACTORS
330
47
102
}
330
47
100
AcDbScale
 70
     0
300
1:10
140
1.0
141
10.0
290
     0
  0
SCALE
  5
4E
102
{ACAD_REACTORS
330
47
102
}
330
47
100
AcDbScale
 70
     0
300
1:16
140
1.0
141
16.0
290
     0
  0
SCALE
  5
4F
102
{ACAD_REACTORS
330
47
102
}
330
47
100
AcDbScale
 70
     0
300
1:20
140
1.0
141
20.0
290
     0
  0
SCALE
  5
50
102
{ACAD_REACTORS
330
47
102
}
330
47
100
AcDbScale
 70
     0
300
1:30
140
1.0
141
30.0
290
     0
  0
SCALE
  5
51
102
{ACAD_REACTORS
330
47
102
}
330
47
100
AcDbScale
 70
     0
300
1:40
140
1.0
141
40.0
290
     0
  0
SCALE
  5
52
102
{ACAD_REACTORS
330
47
102
}
330
47
100
AcDbScale
 70
     0
300
1:50
140
1.0
141
50.0
290
     0
  0
SCALE
  5
53
102
{ACAD_REACTORS
330
47
102
}
330
47
100
AcDbScale
 70
     0
300
1:100
140
1.0
141
100.0
290
     0
  0
SCALE
  5
54
102
{ACAD_REACTORS
330
47
102
}
330
47
100
AcDbScale
 70
     0
300
2:1
140
2.0
141
1.0
290
     0
  0
SCALE
  5
55
102
{ACAD_REACTORS
330
47
102
}
330
47
100
AcDbScale
 70
     0
300
4:1
140
4.0
141
1.0
290
     0
  0
SCALE
  5
56
102
{ACAD_REACTORS
330
47
102
}
330
47
100
AcDbScale
 70
     0
300
8:1
140
8.0
141
1.0
290
     0
  0
SCALE
  5
57
102
{ACAD_REACTORS
330
47
102
}
330
47
100
AcDbScale
 70
     0
300
10:1
140
10.0
141
1.0
290
     0
  0
SCALE
  5
58
102
{ACAD_REACTORS
330
47
102
}
330
47
100
AcDbScale
 70
     0
300
100:1
140
100.0
141
1.0
290
     0
  0
SCALE
  5
59
102
{ACAD_REACTORS
330
47
102
}
330
47
100
AcDbScale
 70
     0
300
1/128" = 1'-0"
140
0.0078125
141
12.0
290
     0
  0
SCALE
  5
5A
102
{ACAD_REACTORS
330
47
102
}
330
47
100
AcDbScale
 70
     0
300
1/64" = 1'-0"
140
0.015625
141
12.0
290
     0
  0
SCALE
  5
5B
102
{ACAD_REACTORS
330
47
102
}
330
47
100
AcDbScale
 70
     0
300
1/32" = 1'-0"
140
0.03125
141
12.0
290
     0
  0
SCALE
  5
5C
102
{ACAD_REACTORS
330
47
102
}
330
47
100
AcDbScale
 70
     0
300
1/16" = 1'-0"
140
0.0625
141
12.0
290
     0
  0
SCALE
  5
5D
102
{ACAD_REACTORS
330
47
102
}
330
47
100
AcDbScale
 70
     0
300
3/32" = 1'-0"
140
0.09375
141
12.0
290
     0
  0
SCALE
  5
5E
102
{ACAD_REACTORS
330
47
102
}
330
47
100
AcDbScale
 70
     0
300
1/8" = 1'-0"
140
0.125
141
12.0
290
     0
  0
SCALE
  5
5F
102
{ACAD_REACTORS
330
47
102
}
330
47
100
AcDbScale
 70
     0
300
3/16" = 1'-0"
140
0.1875
141
12.0
290
     0
  0
SCALE
  5
60
102
{ACAD_REACTORS
330
47
102
}
330
47
100
AcDbScale
 70
     0
300
1/4" = 1'-0"
140
0.25
141
12.0
290
     0
  0
SCALE
  5
61
102
{ACAD_REACTORS
330
47
102
}
330
47
100
AcDbScale
 70
     0
300
3/8" = 1'-0"
140
0.375
141
12.0
290
     0
  0
SCALE
  5
62
102
{ACAD_REACTORS
330
47
102
}
330
47
100
AcDbScale
 70
     0
300
1/2" = 1'-0"
140
0.5
141
12.0
290
     0
  0
SCALE
  5
63
102
{ACAD_REACTORS
330
47
102
}
330
47
100
AcDbScale
 70
     0
300
3/4" = 1'-0"
140
0.75
141
12.0
290
     0
  0
SCALE
  5
64
102
{ACAD_REACTORS
330
47
102
}
330
47
100
AcDbScale
 70
     0
300
1" = 1'-0"
140
1.0
141
12.0
290
     0
  0
SCALE
  5
65
102
{ACAD_REACTORS
330
47
102
}
330
47
100
AcDbScale
 70
     0
300
1-1/2" = 1'-0"
140
1.5
141
12.0
290
     0
  0
SCALE
  5
66
102
{ACAD_REACTORS
330
47
102
}
330
47
100
AcDbScale
 70
     0
300
3" = 1'-0"
140
3.0
141
12.0
290
     0
  0
SCALE
  5
67
102
{ACAD_REACTORS
330
47
102
}
330
47
100
AcDbScale
 70
     0
300
6" = 1'-0"
140
6.0
141
12.0
290
     0
  0
SCALE
  5
68
102
{ACAD_REACTORS
330
47
102
}
330
47
100
AcDbScale
 70
     0
300
1'-0" = 1'-0"
140
12.0
141
12.0
290
     0
  0
ENDSEC
  0
EOF
